Song name
# A B C D E F G H I J K L M N O P Q R S T U V W X Y Z

Relic - Teeth Grinder chords

-------------------------------------------------------------------------------
			     TEETH GRINDER - RELIC
-------------------------------------------------------------------------------
Tabbed by:Vaimaster
Email:tobirulez13@yahoo.com

Tuning:DGCFAD (D Standard)

INTRO:
e|---------------------------|
B|---------------------------|
G|---------------------------|
D|--2--2--2--2-4-4-----------|
A|---2--2--2--2-2-2----------|
E|00--0--0--0-------5-320----|

VERSE:
e|----------------------|
B|----------------------|
G|----------------------|
D|----------------------|
A|22--22--22------------|
E|00--00--00-3fb-33330--|

CHORUS:
e|---------------------|
B|---------------------|
G|---------------------|
D|---------------------|
A|--5--7--5--4-33------|
E|003005003002011------|

BRIDGE RIFF:
e|---------------|
B|---------------|
G|---------------|
D|---------------|
A|22-2----22-2---|
E|000000000000---|

BRIDGE FILL A:
e|13-12-1012-----------------------------------------------------------|
B|-----------13-12-1012-10-9-79----------------------------------------|
G|-----------------------------1097-9-7-5754---------------------------|
D|------------------------------------------7-5p4-5p4------------------|
A|-----------------------------------------------7---7-5p4-5p4----22---|
E|--------------------------------------------------------7---753200---|

BRIDGE FILL B:
e|----12h15p12------12h15p12------12h15p12------12h15p12----|
B|--13--------13--13--------13--13--------13--13--------13--|
G|15------------15------------15------------15--------------|
D|----------------------------------------------------------|
A|----------------------------------------------------------|
E|----------------------------------------------------------|

GUITAR SOLO:
e|tr13tr12tr15tr13tr12tr15tr13-13p12--13p12--13p12--13p12--13p12--13p12-13p12--13p12---|
B|----------------------------------15-----15-----15-----15-----15-----15----15-----15-|
G|-------------------------------------------------------------------------------------|
D|-------------------------------------------------------------------------------------|
A|-------------------------------------------------------------------------------------|
E|-------------------------------------------------------------------------------------|

e|131210---------------------------------------------|
B|------13121012109----------------------------------|
G|-----------------10979755p4------------------------|
D|---------------------------75p4-5p4----------------|
A|-------------------------------7---75p4-5p4----22--|
E|---------------------------------------7---753200--|

GUITAR SOLO 2:
e|1013101210--1013101210--------------------------------------------------------------|
B|----------12----------121013101210991013101210999129109--9129109--------------------|
G|-------------------------------------------------------10-------107107975571079755--|
D|------------------------------------------------------------------------------------|
A|------------------------------------------------------------------------------------|
E|------------------------------------------------------------------------------------|

e|131210---------------------------------------------|
B|------13121012109----------------------------------|
G|-----------------10979755p4------------------------|
D|---------------------------75p4-5p4----------------|
A|-------------------------------7---75p4-5p4----22--|
E|---------------------------------------7---753200--|

SONG ORDER:
INTRO x4
VERSE x8
CHORUS x4
VERSE x4
CHORUS x4
BRIDGE RIFF
BRIDGE FILL A
BRIDGE RIFF
BRIDGE FILL B
BRIDGE RIFF
BRIDGE FILL B
BRIDGE RIFF
BRIDGE FILL A
BRIDGE RIFF
BRIDGE FILL B
BRIDGE RIFF
BRIDGE FILL B
BRIDGE RIFF
GUITAR SOLO
BRIDGE RIFF
BRIDGE FILL A
BRIDGE RIFF
BRIDGE FILL B
BRIDGE RIFF
BRIDGE FILL B
CHORUS x4
GUITAR SOLO 2
END

LYRICS:
(Intro)
Verse:
There's a war going on
Inside my head
I'm always drunk
Until I'm dead!

Look at me wrong
And I'll slit your throat
I'll feed you dinner
And hope you choke!

Chorus:
I talk to myself at night
Just to get in a fight!
The voice inside my head
Never ends!!!!

Verse:
I grind my teeth 
To sleep at night!
A bottle o' whiskey
And a knife!

Chorus:
I talk to myself at night
Just to get in a fight!
The voice inside my head
Never ends!!!!

(Bridge)
(Guitar Solo)
(Bridge/Drum Solo)

Chorus:
I talk to myself at night
Just to get in a fight!
The voice inside my head
Never ends!!!!

(Guitar Solo 2/Outro)
| tr tremolo pick
| /  slide up
| \  slide down
| h  hammer-on
| p  pull-off
| ~  vibrato
| +  harmonic
| x  Mute note
===============================================================================
Tap to rate this tab
 
# A B C D E F G H I J K L M N O P Q R S T U V W X Y Z