Song name
# A B C D E F G H I J K L M N O P Q R S T U V W X Y Z

Relient K - Merry Christmas Heres To Many More tab

-------------------------------------------------------------------------------
               Merry Christmas Here's to Many More - Relient K
-------------------------------------------------------------------------------
Tabbed by: mastermoo420

Tuning: Capo 2
   Am                  C                   Am
f#|------------------|------------------|-------------0--|-----------------------|
C#|-------------1----|-------------1----|----------1-----|-----------------------|
A |----------2-------|----------0-------|-----0h2--------|-------2---------0-----|
E |-----0h2----------|-----0h2----------|--2-------------|--3---------2----------|
B |--0------------0--|--3------------3--|----------------|-----------------------|
F#|------------------|------------------|----------------|-----------------------|
     Am                 Em
f#|------------------|------------------|--------------------|-----------------|
C#|-------------1----|------------------|--------------------|-----------------|
A |----------2-------|-------------0----|--------------------|--2--------------|
E |-----0h2----------|----------2-------|--------------------|-----------------|
B |--0------------0--|-----0h2----------|-----------2--------|-----------------|
F#|------------------|--0------------0--|--0-----------------|-----------------|

Notes:
- I tried my best to have the spacing between the numbers make a little more sense but 
get it correctly, listen to the song and play with it.
- Many thanks to the guy who made the chords for the whole song. The chords he put for 
intro helped me for the first half of the first four measures :P

| h  hammer-on
===============================================================================
Tap to rate this tab
# A B C D E F G H I J K L M N O P Q R S T U V W X Y Z