Song name
# A B C D E F G H I J K L M N O P Q R S T U V W X Y Z

Relient K - The Scene And Herd tab

Guitar 2

e|------------|
B|------------|
G|---<5>~~~---|
D|------------|
A|------------|
D|------------|

Guitar 1

Riff 1

e|---------------------------------------------------------|
B|---------------------------------------------------------|
G|---------------------------------------------------------|
D|---------------------------------------------------------|
A|--5-5-6-5--1--0--3--0--5--0--5-5-6-6--1--1--3--3--5--5-5-|
D|---------------------------------------------------------|
    * *                        * *
Riff 2

e|---------------------------------------------------------|
B|---------------------------------------------------------|
G|---------------------------------------------------------|
D|---------------------------------------------------------|
A|--5-5-6-5--1--0--3--0--5--0--5-5-6-0---------------------|
D|--------------------------------------8--5--10--5--12--5-|
    * *                        * *

Guitar 1 & 2 play Riff 1 again

Guitar 1

Riff 3

e|---------------------------------------------------------|
B|---------------------------------------------------------|
G|---------------------------------------------------------|
D|-----------------------------3-3-3-3-3-3-3-5-5-5-5-5-5-5-|
A|--5-5-6-5--1--0--3--0--5--0--3-3-3-3-3-3-3-5-5-5-5-5-5-5-|
D|-----------------------------3-3-3-3-3-3-3-5-5-5-5-5-5-5-|
    * *                          * * * * * * * * * * * * *

Guitar 2

e|----------------------------------------------------------|
B|----------------------------------------------------------|
G|------8-7--3-3-3-5-5-5-7-7-7------------------------------|
D|----------------------------3-3-3-3-3-3-3-3-5-5-5-5-5-5-5-|
A|----------------------------3-3-3-3-3-3-3-3-5-5-5-5-5-5-5-|
D|----------------------------3-3-3-3-3-3-3-3-5-5-5-5-5-5-5-|
                                * * * * * * * * * * * * * *

i will get the rest of this song, but this is for those dying to know how to play this right now.
Tap to rate this tab
# A B C D E F G H I J K L M N O P Q R S T U V W X Y Z