Song name
# A B C D E F G H I J K L M N O P Q R S T U V W X Y Z

Relient K - Wake Up Call tab

Relient K
Wake up call



e|---| just listen for the strumming pattern and keep playing this chord over
B|---| and over. o, and its played on an acoustic, but the rest of the song 
G|-8-| is on an electric.
D|-9-|
A|-7-|
E|---|

e|-----------------------------------------|
B|-10-9-7-------7----9h10-9-7-9-9h10-9-7-9-|
G|--------9-6-9---9------------------------|
D|-----------------------------------------|
A|-----------------------------------------|
E|-----------------------------------------|

G|-99-88-66-88-99-88-66-9*-|

*=pinch harmonic

e|---------------------------------------------|
B|---------------------------------------------|
G|---------------------------------------------|
D|-----------99-9-99-9-------------------------|
A|-77-7-77-7-77-7-77-7--99-9-99-9-1111-11-77-7-|
E|-55-5-55-5------------77-7-77-7--9-9--9-55-5-|

e|----------------|
B|----------------|
G|-----9----------|
D|-7---9---9------|
A|-7---7---9------|
E|-5-------7------|

then when it goes quiet, only the bass plays.
then the guitar comes in with this.

e|------------------|
B|------------------|
G|-8-xx-88-xx-88-xx-|
D|-9-xx-99-xx-99-xx-|
A|-7-xx-77-xx-77-xx-|
E|------------------|

^^^on this part i just play around with this chord and some muting.

end with: 
G|-9-|
D|-9-|
A|-7-|

this is a cool song. i hope you enjoy playing it.
Tap to rate this tab
 
# A B C D E F G H I J K L M N O P Q R S T U V W X Y Z