Song name
# A B C D E F G H I J K L M N O P Q R S T U V W X Y Z

Relient K - I Need You tab

I Need You tab

by guitar-pro_92 a.k.a. Colby Crosby

Feel free to post a comment and please rate it
have fun

tuning drop Db

Intro

harmonics and noise
\/   \/   \/    \/


Eb|--X--0-----<15>---<13>~-|---------------------------------|---------------------------------|
Bb|--X--0-----<15>---<13>~-|---------------------------------|--6-6-6-6-6-6--------------------|
Gb|--X--0--<15>------------|---------------------------------|--9-9-9-9-9-9--------------------|
Db|--X--0--<15>------------|--0-0-0~--------------------0----|----------------------------0~---|
Ab|--X--0------------------|--0-0-0~--------------------0----|----------------------------0~---|
Db|--X--0------------------|--0-0-0~----------7--9--11b-0----|---------------7---9---11b--0~---|x3

then
|------------------------|
|------------------------|
|------------------------|
|--0-0-0~--0-0-0~--------|
|--0-0-0~--0-0-0~--------|
|--0-0-0~--0-0-0~--------|

Verse 1

Guitar 1

Eb|------------------------------------------------------------------------------|
Bb|------------------------------------------------------------------------------|
Gb|------------------------------------------------------------------------------|
Db|------------------------------------------------------------------------------|
Ab|-8-8-8-8-778--8-8-8-8-778---------8-8-8-8-778--8-8-8-8-778--------------------|
Db|------------------------------------------------------------------------------|
   I've dug up miles and miles...    I've just got bruised and battered hands.........

Eb|------------------------------------------------------------------------------|
Bb|------------------------------------------------------------------------------|
Gb|------------------------------------------------------------------------------|
Db|-7-7-7-7-557--7-7-7-7-557---------7-7-7-7-557--7-7-7-7-557--------------------|
Ab|-8-8-8-8-778--8-8-8-8-778---------8-8-8-8-778--8-8-8-8-778--------------------|
Db|------------------------------------------------------------------------------|
    complete with walls I did....     A mess that I have made from what...




GUITAR 2
Eb|------------------------------------------------------------------------------------------------------|
Bb|------------------------------------------------------------------------------------------------------|
Gb|------------------------------------------------------------------------------------------------------|
Db|---88888888888888888888888888888888--1010101010101010101010101010101010101010101010101010101010101010-|
Ab|---88888888888888888888888888888888--1010101010101010101010101010101010101010101010101010101010101010-|
Db|---88888888888888888888888888888888--1010101010101010101010101010101010101010101010101010101010101010-|
PM    ********************************     * * * * * * * * * * * * * * * * * * * * * * * * * * * * * * * * 
      I've dug up miles and miles...    I've just got bruised and battered hands.........
                                  
Eb|-----------------------------------------------------------------------------------------------------|
Bb|-----------------------------------------------------------------------------------------------------|
Gb|--77777777777777777777777777777777--1010101010101010101010101010101010101010101010101010101010101010-|
Db|--77777777777777777777777777777777--1010101010101010101010101010101010101010101010101010101010101010-|
Ab|--55555555555555555555555555555555--8-8-8-8-8-8-8-8-8-8-8-8-8-8-8-8-8-8-8-8-8-8-8-8-8-8-8-8-8-8-8-8--|
Db|-----------------------------------------------------------------------------------------------------|
PM   ********************************  * * * * * * * * * * * * * * * * * * * * * * * * * * * * * * * *
     complete with walls I did....     A mess that I have made from what...

Pre-Chorus
Guitar 1
Eb|----------------------------------------------------------------------------------|
Bb|----------------------------------------------------------------------------------|
Gb|----------------------------------------------------------------------------------|
Db|--10-10-10-10-8-8-10-10-10-10-10-8-8-10-10-10-10-10-8-8-10-10-10-10-10-8-8-10--13~|
Ab|--12-12-12-12-101012-12-12-12-12-101012-12-12-12-12-101012-12-12-12-12-101012--14~|
Db|----------------------------------------------------------------------------------|

Guitar 2
Eb|------------------------------------------------------------------------------|
Bb|------------------------------------------------------------------------------|
Gb|--33333333333333333333333333333333------555555555555555555555555555555555555--|
Db|--33333333333333333333333333333333------555555555555555555555555555555555555--|
Ab|--11111111111111111111111111111111------333333333333333333333333333333333333--|
Db|------------------------------------------------------------------------------|
PM   ********************************      ************************************
     I have not been abandoned....          deserted and i have not been forgotten


the chorus is this though for guitar 2 and 1
Guitar 1
Eb|----------------------------------------------------------------------------|
Bb|----------------------------------------------------------------------------|
Gb|--14-------10-------7------5------------------------------------------------|
Db|---X-------X--------X------X------------------------------------------------|
Ab|--12(x32)--8-(x32)--5(x32)-3(x32)-------------------------------------------|
Eb|----------------------------------------------------------------------------|

Guitar 2

Eb|----------------------------------------------------------------------------|
Bb|----------------------------------------------------------------------------|
Gb|----------------------------------------------------------------------------|
Db|--0-------3---------8--------10---------------------------------------------|
Ab|--0-------3---------8--------10---------------------------------------------|
Db|--0(x32)--3(x32)----8(x32)---10(x32)----------------------------------------|



Eb|-----------------------------------------------------------------------------|
Bb|----------------6-6-6-6-6-6--------------------------------------------------|
Gb|----------------9-9-9-9-9-9--0-0---------------------------------------------|
Db|-------------0~--------------0-0---------------------------------------------|
Ab|-------------0~--------------0-0---------------------------------------------|
Db|-7--9--11b---0~--------------0-0---------------------------------------------|

then bass

Verse 2

Guitar 1

Eb|------------------------------------------------------------------------------|
Bb|------------------------------------------------------------------------------|
Gb|------------------------------------------------------------------------------|
Db|------------------------------------------------------------------------------|
Ab|-8-8-8-8-778--8-8-8-8-778------------8-8-8-8-778--8-8-8-8-778-----------------|
Db|------------------------------------------------------------------------------|
   Explore the cave that is my chest... You're whispers echo off the walls.........

Eb|------------------------------------------------------------------------------|
Bb|------------------------------------------------------------------------------|
Gb|------------------------------------------------------------------------------|
Db|-7-7-7-7-557--7-7-7-7-557----------7-7-7-7-557--7-7-7-7-557-------------------|
Ab|-8-8-8-8-778--8-8-8-8-778----------8-8-8-8-778--8-8-8-8-778-------------------|
Db|------------------------------------------------------------------------------|
   the voice of who i used to be..    please shine a light into the black

GUITAR 2
Eb|------------------------------------------------------------------------------------------------------|
Bb|------------------------------------------------------------------------------------------------------|
Gb|------------------------------------------------------------------------------------------------------|
Db|---88888888888888888888888888888888--1010101010101010101010101010101010101010101010101010101010101010-|
Ab|---88888888888888888888888888888888--1010101010101010101010101010101010101010101010101010101010101010-|
Db|---88888888888888888888888888888888--1010101010101010101010101010101010101010101010101010101010101010-|
PM    ********************************     * * * * * * * * * * * * * * * * * * * * * * * * * * * * * * * * 
    Explore the cave that is my chest...You're whispers echo off the walls.........
                                  
Eb|-----------------------------------------------------------------------------------------------------|
Bb|-----------------------------------------------------------------------------------------------------|
Gb|--77777777777777777777777777777777--1010101010101010101010101010101010101010101010101010101010101010-|
Db|--77777777777777777777777777777777--1010101010101010101010101010101010101010101010101010101010101010-|
Ab|--55555555555555555555555555555555--8-8-8-8-8-8-8-8-8-8-8-8-8-8-8-8-8-8-8-8-8-8-8-8-8-8-8-8-8-8-8-8--|
Db|-----------------------------------------------------------------------------------------------------|
PM   ********************************  * * * * * * * * * * * * * * * * * * * * * * * * * * * * * * * *
     the voice of who i used to be..   please shine a light into the black

Guitar 3

Eb|------------------------------------------------------------------------------|
Bb|------------------------------------------------------------------------------|
Gb|------------------------------------------------------------------------------|
Db|--00000000222222223333333355555555--22222222333333335555555577777777----------|
Ab|------------------------------------------------------------------------------|
Db|------------------------------------------------------------------------------|
     Explore the cave that is my chest You're whispers echo off the walls

Eb|------------------------------------------------------------------------------------|
Bb|------------------------------------------------------------------------------------|
Gb|------------------------------------------------------------------------------------|
Db|--3333333355555555777777771010101010101010-3333333355555555777777771010101010101010-|
Ab|------------------------------------------------------------------------------------|
Db|------------------------------------------------------------------------------------|
     the voice of who i used to be....        please shine a light into the black

Pre-Chorus 2

Guitar 1
Eb|----------------------------------------------------------------------------------|
Bb|----------------------------------------------------------------------------------|
Gb|----------------------------------------------------------------------------------|
Db|--10-10-10-10-8-8-10-10-10-10-10-8-8-10-10-10-10-10-8-8-10-10-10-10-10-8-8-10--13~|
Ab|--12-12-12-12-101012-12-12-12-12-101012-12-12-12-12-101012-12-12-12-12-101012--14~|
Db|----------------------------------------------------------------------------------|

Guitar 2
Eb|-----------------------------------------------------------------------------------|
Bb|-------------------------------------------------------------------------------6~--|
Gb|--33333333333333333333333333333333--555555555555555555555555555555555555-------9~--|
Db|--33333333333333333333333333333333--555555555555555555555555555555555555---0-0-0~--|
Ab|--11111111111111111111111111111111--333333333333333333333333333333333333---0-0-0~--|
Db|---------------------------------------------------------------------------0-0-0~--|
PM   ********************************  ************************************
     I have not been abandoned....     deserted and i have not been forgotten
Guitar 3
Eb|------------------------------------------------------------------------------------|
Bb|------------------------------------------------------------------------------------|
Gb|------------------------------------------------------------------------------------|
Db|--3333333355555555777777771010101010101010-3333333355555555777777771010101010101010-|
Ab|------------------------------------------------------------------------------------|
Db|------------------------------------------------------------------------------------|
     I have not been abandoned no i have not  deserted and i have not been forgotten
Chorus 2 guitar 2 and 1
Guitar 1
Eb|----------------------------------------------------------------------------|
Bb|----------------------------------------------------------------------------|
Gb|--14------10--------7--------5--------7------5------------------------------|
Db|---X------X---------X--------X--------X------X------------------------------|
Ab|--12(x32)-8-(x32)---5(x32)---3(x32)---5(x16)-3-(x16)------------------------|
Eb|----------------------------------------------------------------------------|

Guitar 2

Eb|----------------------------------------------------------------------------|
Bb|----------------------------------------------------------------------------|
Gb|----------------------------------------------------------------------------|
Db|--0-------3---------8--------10-------8-------10--------0~------------------|
Ab|--0-------3---------8--------10-------8-------10--------0~------------------|
Db|--0(x32)--3(x32)----8(x32)---10(x32)--8(x16)--10(x16)---0~------------------|

Bridge all i could get out of it

Eb|------------------------------------------------------------------------------|
Bb|------------------------------------------------------------------------------|
Gb|--------+5+-+7+---------------------------------------------------------------|
Db|----+9+---------+7+------(x4)-------------------------------------------------|
Ab|------------------------------------------------------------------------------|
Db|------------------------------------------------------------------------------|


Chorus 2 guitar 2 and 1
Guitar 1
Eb|----------------------------------------------------------------------------|
Bb|----------------------------------------------------------------------------|
Gb|--14-------10-------7------5------------------------------------------------|
Db|---X-------X--------X------X------------------------------------------------|
Ab|--12-------8-(x32)--5(x32)-3(x32)-------------------------------------------|
Eb|----------------------------------------------------------------------------|

Guitar 2

Eb|------------------------------------------------------------------------------|
Bb|------------------------------------------------------------------------------|
Gb|------------------------------------------------------------------------------|
Db|--0-------3---------8--------10-------8-------10--------0------8------10------|
Ab|--0-------3---------8--------10-------8-------10--------0------8------10------|
Db|--0-------3(x32)----8(x32)---10(x32)--8(x16)--10(x16)---0(x32)-8(x16)-10(x16)-|

this is thrown in during the last chorus
Eb|------------------------------------------------------------------------------|
Bb|------------------------------------------------------------------------------|
Gb|----888888887777777788888888777777778888888877777777-and-on-until-intro-again-|
Db|------------------------------------------------------------------------------|
Ab|------------------------------------------------------------------------------|
Db|------------------------------------------------------------------------------|

outro

Eb|-----------------------------------------------------------------------------|
Bb|----------------6-6-6-6-6-6--------------------------------------------------|
Gb|----------------9-9-9-9-9-9--------------------------------------------------|
Db|-------------0~-----------------------0-0~-----------------------------------|
Ab|-------------0~-----------------------0-0~-----------------------------------|
Db|-7--9--11b---0~-------------7--9--11b-0-0~-----------------------------------|
PM                                         *

now your done aren't you happy now
| /  slide up
| \  slide down
| h  hammer-on
| p  pull-off
| ~  vibrato
| +  harmonic
| x  Mute note
Tap to rate this tab
 
# A B C D E F G H I J K L M N O P Q R S T U V W X Y Z