Song name
# A B C D E F G H I J K L M N O P Q R S T U V W X Y Z

Relient K - The Scene And Herd tab

Help us improve GuitareTab! Take a short survey!
Song: The Scene and Herd
Artist: Relient K
Album: The Bird and The Beesides

Gtr. 1
e|----------------------------------------|
B|----------------------------------------|
G|----------------------------------------|
D|----------------------------------------|
A|-xx-6---1---3---5------xx-66-11-33-555--|
E|------3---3---3---33--------------------|

Gtr. 1
e|------------------------------------------|
B|------------------------------------------|
G|------------------------------------------|
D|------------------------------------------|
A|-xx-6---1---3---5------xx-6-3-0---3---5---|
E|------3---3---3---33------------1---2---2-|

Then     
Gtr. 2
e|-----------------|
B|-----------------|
G|-xx-88-77-55-777-|
D|-xx-88-77-55-777-| 
A|-xx-66-55-33-555-|
E|-----------------| 3X

Gtr. 1
e|-----------------|
B|-----------------|
G|-----------------|
D|-----------------|
A|--66-55-33-5555--|
E|-----------------|

Then
Both Guitars
e|--------------------|
B|--------------------|
G|--------------------|
D|--3333333344444444--|
A|--3333333344444444--|
E|--1111111122222222--|
    \_____P.M._____/

That's all I have right now. I'll try to do the rest 
of the song if I can figure it out. Feel free to comment and
PLEASE RATE!!!
Related for The Scene And Herd tab