Song name
# A B C D E F G H I J K L M N O P Q R S T U V W X Y Z

Relient K - No Reaction tab

Help us improve GuitareTab! Take a short survey!
Song: No Reaction
Artist: Relient K
Album: The Bird and The Beesides
Track #07
This tab is really easy. I wasn't sure what to label the
parts so I just put the time that it's at. 

(0:00-0:05)
e|-------------------|
B|-------------------|
G|----------------6~-|
D|-4444344443444436~-|
A|-4444344443444434~-|
E|-222212222122221---|

(0:05-0:15)
e|------------------|
B|------------------|
G|-88886666----4444-|
D|-8888666644444444-|
A|-6666444444442222-|
E|---------2222-----| 2X

(0:15-0:23)
e|-----------------------------|
B|-----------------------------|
G|-----444466667777--11-11-10~-|
D|-4444444466667777--11-11-10~-|
A|-4444222244445555---9--9--8~-|
E|-2222------------------------|

(0:24-0:39)
e|----------------------|
b|----------------------|
G|-11-11-10-10-8-8-8-10-|
D|-11-11-10-10-8-8-8-10-|
A|--9--9--8--8-6-6-6--8-|
E|----------------------| 3X

(0:40-0:44)
e|--------------------|
B|--------------------|
G|-11-11-10-10--8-4-6-|
D|-11-11-10-10--8-4-6-|
A|--9--9--8--8--6-2-4-|
E|--------------------|

(0:45-0:55)
e|---------------------------------|
B|---------------------------------|
G|-----66668888-4-6-----6666-8-4-6-|
D|-444466668888-4-6-44446666-8-4-6-|
A|-444444446666-2-4-44444444-6-2-4-|
E|-2222-------------2222-----------|

(0:56-1:00)
e|----------------|
B|----------------|
G|------------4---|
D|-4~-34~-34~-44--|
A|-4~-34~-34~-24--|
E|-2~-12~-12~--2--|

That's it. Feel free to comment and PLEASE RATE!
Related for No Reaction tab