Song name
# A B C D E F G H I J K L M N O P Q R S T U V W X Y Z

Relient K - The Vinyl Countdown tab

Song: The Vinyl Countdown
Artist: Relient K
Album: The Bird and The Beesides
Tabbed By: Softball1230
Drop D Tuning

Intro: Gtr. 1
e|--------------------------------------|
B|--------------------------------------|
G|--4-xx---4-xx-4-xx-44-xx-----x-6-8----|
D|--4-xx-2-4-xx-4-xx-44-xx-2-4-x-6-8-7--|
A|--2-xx-2-2-xx-2-xx-22-xx-2-4-x-4-6-7--|
D|-------2-----------------2-4-------7--| X4

On 3rd time Guitar 2 comes in.
These are elevens, not ones.
Gtr. 2
e|-------------------------------------------------|
B|--11-11--11-11-11-11-11-11-11---11-11--11-11-11--|
G|-------------------------------------------------|
D|-------------------------------------------------|
A|-------------------------------------------------|
D|-------------------------------------------------| X2

I'm trying to figure out the rest of the song so I'll
post it when I have it. Please rate and comment.
Tap to rate this tab
# A B C D E F G H I J K L M N O P Q R S T U V W X Y Z