Song name
# A B C D E F G H I J K L M N O P Q R S T U V W X Y Z

Relient K - I Just Want You To Know tab

Help us improve GuitareTab! Take a short survey!
-------------------------------------------------
     I Just Want You To Know - Relient K
-------------------------------------------------

Song:I Just Want You To Know
Artist: Relient K
Album: The Bird and the Beesides
Track #12
Eb Tuning (eb-Bb-Gb-Db-Ab-Eb)

Intro:
eb|--------------------0-----------------|
Bb|-----2--------2--------2--------2-----|
Gb|-----------4-----------------4--------|
Db|--------------------------------------|
Ab|--------------------------------------|
Eb|--0-----0--------0--------0--------0--|

eb|--------------------0-----------------|
Bb|-----2--------2--------2--------2-----|
Gb|-----------4-----------------4--------|
Db|--------------------------------------|
Ab|--0-----0--------0--------0--------0--|
Eb|--------------------------------------|

eb|--------------------0-----------------|
Bb|-----2--------2--------2--------2-----|
Gb|-----------4-----------------4--------|
Db|--------------------------------------|
Ab|--2-----2--------2--------2--------2--|
Eb|--------------------------------------|

eb|--------------------0-----------------|
Bb|-----2--------2--------2--------2-----|
Gb|-----------4-----------------4--------|
Db|--------------------------------------|
Ab|--------------------------------------|
Eb|--0-----0--------0--------0--------0--|

This tab isn't the way that Relient K plays it but it
sounds good to me. Jon Schneck has a video on youtube
teaching you how to play this song. I didn't copy it
or anything. I tabbed this song before I saw the video.
It's pretty easy. Please rate and comment.
Related for I Just Want You To Know tab