Guitaretab - guitar tabs
Song name
# A B C D E F G H I J K L M N O P Q R S T U V W X Y Z

Relient K - Deck The Halls tab

Deck the Halls- Relient K

~=let ring

Intro: Guitar 1
Eb|--------------------------------------------------------------------------|
Bb|--------------------------------------------------------------------------|
Gb|--------------------------------------------------------------------------|
Db|--------------------------------------------------------------------------|
Ab|-3-5-6-3-5--3-1-0-1---3-5-6-3-5-3--1-0-1--3-5-6-3-5-3--1-0-1--------------|
Eb|--------------------------------------------------------------------------|

Guitar 2
Eb|---------------------------------------------------------------------------|
Bb|---------------------------------------------------------------------------|
Gb|----------------------8~-------------------1212121212121212--10-1212-1414~-|
Db|-8~-------------------8~-------------------1212121212121212--10-1212-1414~-|
Ab|-8~-------------------6~-------------------1010101010101010--8--1010-1212~-|
Eb|-6~------------------------------------------------------------------------|
                                                     ^                    ^
                                                      These are 10s and 12s

Guitar 1
Eb|--------------------------------------------------------------------------|
Bb|--------------------------------------------------------------------10----|
Gb|--------------------------------------------------------------------x-----|
Db|--------------------------------------------------------------------7-----|
Ab|-3-5-6-3-5--3-1-0-1---3-5-6-3-5--3-1-0-1---3-5-6-3-5-3--3-1-0-1-----------|
Eb|--------------------------------------------------------------------------|

Guitar 2
Eb|--------------------------------------------------------------------------|
Bb|--------------------------------------------------------------------------|
Gb|-10~------------------11~------------------12~----------------------10~---|
Db|-10~------------------11~------------------12~----------------------10~---|
Ab|-8~-------------------9~-------------------10~----------------------8~----|
Eb|--------------------------------------------------------------------------|

Chorus:
Guitar 1
Eb|--------------------------------------------------------------------------|
Bb|--------------------------------------------------------------------------|
Gb|-3~--------------3~-------------------------------------------------------|
Db|-3~--------------3~---------------3-3-3-3-8-8-8-8-8-8-5-5-3-3-3-3---------|
Ab|-1~--------------1~---------------3-3-3-3-8-8-8-8-8-8-5-5-3-3-3-3---------|
Eb|----------------------------------1-1-1-1-6-6-6-6-6-6-3-3-1-1-1-1---------|
Deck the halls... 'Tis the season...Don we now...
[ Tab from: http://www.guitaretab.com/r/relient-k/201954.html ]
Guitar 2
Eb|-----------------66666666666666666----------------------------------------|
Bb|-----------------xxxxxxxxxxxxxxxxx-(8x)---------------------------8~------|
Gb|-----------------33333333333333333--------------------------------x~------|
Ab|------------------------------------------------------------------5~------|
Db|--------------------------------------------------------------------------|
Eb|--------------------------------------------------------------------------|

Guitar 1
Eb|--------------------------------------------------------------------------|
Bb|--------------------------------------------------------------------------|
Gb|-3~--------------3~-------3~----------------------------------------------|
Db|-3~--------------3~-5~-3~-3~----------------------------------------------|
Ab|-1~--------------1~-5~-3~-1~---3-5-6-3-5--3-1-0-1-------------------------|
Eb|--------------------3~-1~-------------------------------------------------|
Troll the ancient...

Guitar 2
Eb|-6~-----------------------------------------------------------------------|
Bb|-x~-----------------------------------------------------------------------|
Gb|-3~-----------------------------------------------------------------------|
Db|-------------------------------7-9-10-7-9--7-5-4-5------------------------|
Ab|--------------------------------------------------------------------------|
Eb|--------------------------------------------------------------------------|

Bridge:
Guitar 1
Eb|---------------------------------------------------------------------------|
Bb|---------------------------------------------------------------------------|
Gb|---------------------------------------------------------------------------|
Db|---------------------------------------------------------------------------|
Ab|-3-5-6-3-5--3-1-0-1---3-5-6-3-5--3-1-0-1--3-5-6-3-5--3-1-0-1---------------|
Eb|---------------------------------------------------------------------------|

Guitar 2
Eb|-66666666666666666666666666666666666666666666666666666666666---------------|
Bb|-xxxxxxxxxxxxxxxxxxxxxxxxxxxxxxxxxxxxxxxxxxxxxxxxxxxxxxxxxxx---------------|
Gb|-33333333333333333333333333333333333333333333333333333333333-10-1212-1414~-|
Db|-------------------------------------------------------------10-1212-1414~-|
Ab|-------------------------------------------------------------8--1010-1212~-|
Eb|---------------------------------------------------------------------------|

Guitar 1
Eb|--------------------------------------------------------------------------|
Bb|--------------------------------------------------------------------------|
Gb|-------------------------------------------------------------3~-----------|
Db|-------------------------------------------------------------3~-----------|
Ab|-3-5-6-3-5--3-1-0-1--3-5-6-3-5--3-1-0-1--3-5-6-3-5-3-1-0-1---1~-----------|
Eb|--------------------------------------------------------------------------|
Fa la la...

Guitar 2

It's hard to hear it over the singing so I didn't put anything...you can fill
it with the 3x6 riff if you want.


The last part of the song is just a variation on the piano I think.


Hope you like it.
Related for Deck The Halls tab
Deck The Halls chords by Relient K