Song name
# A B C D E F G H I J K L M N O P Q R S T U V W X Y Z

Relient K - Forget And Not Slow Down tab

intro
rhythm.  Time it
eb------------------------------|
bb-----2x-------------555555555-|
gb-666-11111111---666-666666666-|
db-777-22222222---777-666666666-|
ab-777-22222222---777-444444444-|
eb-555-00000000---555-----------|

lead
eb------------------------------------------|
bb-10-10-10-9--9-9-12p9--9-9-12p9--9-9-12p9-|
gb------------------------------------------|
db------------------------------------------|
ab------------------------------------------|
eb------------------------------------------|

piano ending
eb-10~--12~--16~--17~-|
bb--------------------|
gb--------------------|
verse (I suggest playing it the chord style written below but when the band goes hard
after the first part, you can omit the high 3 strings and power chord it.  Not in rhythm
but it's easy to figure out.)
eb-0000000-00000000--55555555-55555555-|
bb-0000000-00000000--55555555-55555555-|
gb-1111111-11111111--66666666-66666666-|
db-2222222-22222222--77777777-77777777-|
ab-2222222-22222222--77777777-77777777-|
eb-0000000-00000000--55555555-55555555-|

chorus
eb------------------------------------------------------|
bb-55555555-22222222------------------------------------|
gb-66666666-44444444-11111111-66666666-----666666666666-|
db-66666666-44444444-22222222-77777777- 2x 777777777777-|
ab-44444444-22222222-22222222-77777777-----777777777777-|
eb-------------------00000000-55555555-----555555555555-|

Another guitar mimics the vocals for
Synced the notes to lyrics to how it sounds.
"Pour over me and wash my hands of it."
eb----10-11---10-------9--------7------|
bb---------12------11-------9-------9--|
gb-------------------------------------|
db-------------------------------------|
ab-------------------------------------|
eb-------------------------------------|

intro

verse
palm mute it first couple times.

Bridge
rhythm
eb---------------------------|
bb---------------------------|
gb-6666666666666--1~--1~--1~-|
db-7777777777777--2~--2~--2~-|
ab-7777777777777--2~--2~--2~-|
eb-5555555555555--0~--0~--0~-|

lead
          Guitar mimics vocals.  Tried putting notes where it syncs with lyrics.
eb-----------------------------------"Something I should tell you now"-|
bb-4---4---4---5----4---4---------------4------------------------------|
gb---4---4---4---4----4---4-444-6-----------4-------6------------------|
db--------------------------------6-------------7---------4------------|
ab-------------------------------------------------------------7---4---|
eb---------------------------------------------------------------------|

pre-chorus
rhtyhm (palm mute)
eb--------------|
bb--------------|
gb-666666666666-
db-777777777777-
ab-777777777777-
eb-555555555555-

lead
eb-------------------|
bb-------------------|
gb-------------------|
db---4~--4-6~--6-7~--|
ab-6-----------------|
eb-------------------|

chorus

bridge 2
rhythm
eb---------------------------|
bb---------------------------|
gb-6666666666666--1~--1~--1~-|
db-7777777777777--2~--2~--2~-|
ab-7777777777777--2~--2~--2~-|
eb-5555555555555--0~--0~--0~-|

lead
eb--"Something I should tell you..."-
bb-----4---------------------------|
gb---------4-------6---------------|
db-------------7---------4---------|
ab----------------------------7----|
eb---------------------------------|

Piano Part for second time around.
 "Oh, oh. Oh, oh. Something I should tell you now"
eb-7-------9-------11------------------------------|
bb-----9-------9-------12-------14----13-----------|
gb--------------------------14------------16-------|
db---------------------------------------------16--|
ab-------------------------------------------------|
eb-------------------------------------------------|

pre-chorus
eb------------------------------------------------------------|
bb------------------------------------------------------------|
gb------------------------------------------------------------|
db-4--2-4--2-4-2--6--4-6--4-6-4--7--6-7--6-7-6--9--7-9--7-9-7-|
ab------------------------------------------------------------|
eb------------------------------------------------------------|

chorus
rhythm
eb-----------------|
bb-5~--2~----------| repeat
gb-6~--4~--1~--6~--| several
db-6~--4~--2~--7~--| times
ab-4~--2~--2~--7~--|
eb---------0~--5~--|

lead
eb------------------------------------------------------------|
bb------------------------------------------------------------| repeat
gb------------------------------------------------------------| several
db------------------------------6--4-6--4-6-4--7--6-7--6-7-6--| times
ab-7--4-7--4-7-4----------------------------------------------|
eb---------------7--5-7--5-7-5--------------------------------|

last chorus is same as other chorus'
Tap to rate this tab
# A B C D E F G H I J K L M N O P Q R S T U V W X Y Z