Song name
# A B C D E F G H I J K L M N O P Q R S T U V W X Y Z

Relient K - Therapy tab

Therapy - Relient K - 1st Acoustic-Electric Guitar
Tabbed by: James Pratt, jp_iliketomoveit@yahoo.com 

Symbols used:
3/ : Slide up
3* : Bow (details on bottom)

Tuning: Standard Tuning, E, A, D, G, B, e
Speed: 102 (204 quarters)

                          Intro
e |--------|--------|--------|--------|--------|--------|
B |---1---1|---1---1|--------|--------|---1---1|---1---1|
G |-0---0--|-0---0--|-0-5-0-5|-0-4-0-5|-0---0--|-0---0--|
D |3-3-3-3-|2-2-2-2-|7-7-7-7-|5-5-5-5-|3-3-3-3-|2-2-2-2-|
A |--------|--------|--------|--------|--------|--------|
E |--------|--------|--------|--------|--------|--------|

e |--------|--------|--------|--------|--------|--------|
B |---3---5|-5-3-3--|---1---1|---1---1|--------|--------|
G |20---0--|--------|-0---0--|-0---0--|-0-5-0-5|-0-4-0-5|
D |--------|--------|3-3-3-3-|2-2-2-2-|7-7-7-7-|5-5-5-5-|
A |--------|--------|--------|--------|--------|--------|
E |--------|--------|--------|--------|--------|--------|

e |--------|--------|--------|--------|
B |---1---1|---1---1|---3---5|-5-3-3--|
G |-0---0--|-0---0--|20---0--|--------|
D |3-3-3-3-|2-2-2-2-|--------|--------|
A |--------|--------|--------|--------|
E |--------|--------|--------|--------|

                          Verse I
e |--------|--------|--------|--------|--------|--------| I never thought I'd be,
B |---1---1|---1---1|--------|--------|---1---1|---1---1| Driving through the country 
G |-0---0--|-0---0--|-0-5-0-5|-0-4-0-5|-0---0--|-0---0--| just to drive,
D |3-3-3-3-|2-2-2-2-|7-7-7-7-|5-5-5-5-|3-3-3-3-|2-2-2-2-| With only music and the- 
A |--------|--------|--------|--------|--------|--------| 
E |--------|--------|--------|--------|--------|--------|

e |--------|--------|--------|--------|--------|--------| Clothes that I woke up in,
B |---3---5|-5-3-3--|---1---1|---1---1|--------|--------| I never thought I'd need,
G |20---0--|--------|-0---0--|-0---0--|-0-5-0-5|-0-4-0-5| All this time alone it goes
D |--------|--------|3-3-3-3-|2-2-2-2-|7-7-7-7-|5-5-5-5-| to show,
A |--------|--------|--------|--------|--------|--------|
E |--------|--------|--------|--------|--------|--------|

e |--------|--------|--------|--------|                   I had so much, yet
B |---1---1|---1---1|---3---5|-5-3-3--|                   I had need for nothing but
G |-0---0--|-0---0--|20---0--|--------|
D |3-3-3-3-|2-2-2-2-|--------|--------|
A |--------|--------|--------|--------|
E |--------|--------|--------|--------|

                     Buildup / Chorus I 
e |--------|--------|--------|--------|5-555555|55555555| You,
B |---1---1|---1---1|---1---1|---1---1|5-555555|55555555|
G |-0---0--|-0---0--|-0---0--|-0---0--|5-555555|55555555| But you.
D |3-------|--------|2-------|--------|7-777777|77777777|
A |--------|--------|--------|--------|7-777777|77777777|
E |--------|--------|--------|--------|5-555555|55555555|

e |55555555|55555555|1--1--8-|--8---8-|5--5----|3--3----|
B |55555555|55555555|1--1--8-|--8---8-|5--5----|3--3----| This is just therapy, let's
G |55555555|55555555|1--1--8-|--8---8-|5--5----|3--3----| Call it what it is, with a
D |77777777|77777777|3--3--10|--10--10|7--7----|5--5----|
A |77777777|77777777|3--3--10|--10--10|7--7----|5--5----|
E |55555555|55555555|1--1--8-|--8---8-|5--5----|3--3----|

e |1--1----|5--5----|3-3--3--|3--3--3-|1--1--8-|--8---8-| Death grip on this life 
B |1--1----|5--5----|3-3--3--|3--3--5-|1--1--8-|--8---8-| always
G |1--1----|5--5----|3-3--3--|3--3--3-|1--1--8-|--8---8-| Transitioning, this is just
D |3--3----|7--7----|5-5--5--|5--5--5-|3--3--10|--10--10| Therapy, cause
A |3--3----|7--7----|5-5--5--|5--5--5-|3--3--10|--10--10|
E |1--1----|5--5----|3-3--3--|3--3--3-|1--1--8-|--8---8-|

e |5--5----|3--3----|1--1----|8--8----|3--3----|3--3----| You won't take my calls and
B |5--5----|3--3----|1--1----|8--8----|3--3----|3--3----| that makes
G |5--5----|3--3----|1--1----|8--8----|3--3----|3--3----| God the only one who's left
D |7--7----|5--5----|3--3----|10-10---|5--5----|5--5----| here
A |7--7----|5--5----|3--3----|10-10---|5--5----|5--5----| Listening,
E |5--5----|3--3----|1--1----|8--8----|3--3----|3--3----|

                   Breakdown / Verse II
e |1-------|--------|--------|--------|--------|--------| To me.
B |1-------|--------|---1----|--------|---1---1|---1---1|
G |1-------|--------|-0------|--------|-0---0--|-0---0--| I'm letting it all sink in,
D |3-------|--------|3-3-----|--------|3-3-3-3-|2-2-2-2-|
A |3-------|--------|--------|--------|--------|--------|
E |1-------|--------|--------|--------|--------|--------|

e |--------|--------|--------|--------|--------|--------| It's good to feel a sting 
B |--------|--------|---1---1|---1---1|---3--35|-5-3-3--| now and again,
G |-0-5-0-5|-0-4-0-5|-0---0--|-0---0--|20---0--|--------| I hope it's one less woeful
D |7-7-7-7-|5-5-5-5-|3-3-3-3-|2-2-2-2-|--------|--------| Thing there is to fight 
A |--------|--------|--------|--------|--------|--------| fight through. 
E |--------|--------|--------|--------|--------|--------|

e |--------|--------|--------|--------|--------|--------| Forgetting it all begin,
B |---1---1|---1---1|--------|--------|---1---1|---1---1| fresh
G |-0---0--|-0---0--|-0-5-0-5|-0-4-0-5|-0---0--|-0---0--| Paper and a nice expensive
D |3-3-3-3-|2-2-2-2-|7-7-7-7-|5-5-5-5-|3-3-3-3-|2-2-2-2-| pen,
A |--------|--------|--------|--------|--------|--------| The past cannot subtract a 
E |--------|--------|--------|--------|--------|--------|

e |--------|--------|                                     Thing from what I might do 
B |---3-3-5|-5-3-3--|                                     for
G |202-----|--------|
D |--------|--------|
A |--------|--------|
E |--------|--------|

                     Buildup / Chorus II
e |--------|--------|--------|--------|5-555555|55555555| You,
B |---1---1|---1---1|---1---1|---1---1|5-555555|55555555|
G |-0---0--|-0---0--|-0---0--|-0---0--|5-555555|55555555| Unless that's what I let it
D |3-3-3-3-|3-3-3-3-|2-2-2-2-|2-2-2-2-|7-777777|77777777| do, 
A |--------|--------|--------|--------|7-777777|77777777|
E |--------|--------|--------|--------|5-555555|55555555|

e |55555555|55555555|1--1--8-|--8---8-|5--5----|3--3----| This is just
B |55555555|55555555|1--1--8-|--8---8-|5--5----|3--3----| Therapy, Let's
G |55555555|55555555|1--1--8-|--8---8-|5--5----|3--3----| Call it what it is, with a
D |77777777|77777777|3--3--10|--10--10|7--7----|5--5----|
A |77777777|77777777|3--3--10|--10--10|7--7----|5--5----|
E |55555555|55555555|1--1--8-|--8---8-|5--5----|3--3----|

e |1--1----|5--5----|3-3--3--|3--3--3-|1--1--8-|--8---8-| Death grip on this life 
B |1--1----|5--5----|3-3--3--|3--3--5-|1--1--8-|--8---8-| always
G |1--1----|5--5----|3-3--3--|3--3--3-|1--1--8-|--8---8-| Transitioning, this is just
D |3--3----|7--7----|5-5--5--|5--5--5-|3--3--10|--10--10| Therapy, cause
A |3--3----|7--7----|5-5--5--|5--5--5-|3--3--10|--10--10|
E |1--1----|5--5----|3-3--3--|3--3--3-|1--1--8-|--8---8-|

e |5--5----|3--3----|1--1----|8--8----|3--3----|3--3----| You won't take my calls and
B |5--5----|3--3----|1--1----|8--8----|3--3----|3--3----| that makes
G |5--5----|3--3----|1--1----|8--8----|3--3----|3--3----| God the only one who's left
D |7--7----|5--5----|3--3----|10-10---|5--5----|5--5----| here 
A |7--7----|5--5----|3--3----|10-10---|5--5----|5--5----| Listening,
E |5--5----|3--3----|1--1----|8--8----|3--3----|3--3----|

                          Bridge
e |77777777|88888888|88888888|88-8-8-8|77777777|88888888|
B |--------|--------|--------|--------|--------|--------|
G |--------|--------|--------|--------|--------|--------|
D |--------|--------|--------|--------|--------|--------|
A |--------|--------|--------|--------|--------|--------|
E |--------|--------|--------|--------|--------|--------|

e |88-8-8-8|-8-8-8-8|--------|--------|--------|--------|
B |--------|--------|00000000|11111111|/66-6-6-|6-6-6--6| Loneliness and solitude are
G |--------|--------|--------|--------|---5-5-5|-5-5-55-| Two things not to get 
D |--------|--------|--------|--------|--------|--------| confused,
A |--------|--------|--------|--------|--------|--------|
E |--------|--------|--------|--------|--------|--------|

e |--------|--------|--------|--------|--------|--------| Cause I spent my solitude 
B |--------|--------|--------|--------|00000000|11111111| with
G |00000000|22222222|/55-5-5-|5-5-5--5|--------|--------| You,
D |--------|--------|---7-7-7|-7-7-77-|--------|--------| I gather all the questions 
A |--------|--------|--------|--------|--------|--------| of the
E |--------|--------|--------|--------|--------|--------|

e |--------|--------|--------|--------|--------|--------| Things I just can't get 
B |/66-6-6-|6-6-6--6|--------|--------|--------|--------| straight, and I
G |---5-5-5|-5-5-55-|00000000|22222222|/55-5-5-|5-5-5--5| Answer them the way I guess
D |--------|--------|--------|--------|---7-7-7|-7-7-77-| you'd
A |--------|--------|--------|--------|--------|--------| Do. This is my
E |--------|--------|--------|--------|--------|--------|

                    Buildup / Chorus III
e |--------|--------|--------|--------|---0---1|--------| Therapy,
B |---1---1|---1---1|---1---1|---0---1|-0---0--|---1---1|
G |-0---0--|-0---0--|-0---0--|-0---0--|2-------|-0---0--| Cause you're the only one, 
D |3-3-3-3-|2-2-2-2-|--------|--------|--------|--------| who's
A |--------|--------|0-------|--------|--------|0-------|
E |--------|--------|--------|3-------|--------|--------|

e |--------|--------|1--1--8-|--------|0*----x-|--------| Listening to me, this is my
B |---0---1|---0---1|1--1--8-|--------|1*----3*|--------| Therapy, just
G |-0---0--|-0---0--|1--1--8-|--------|2*----0*|--------| Call it what it is not what
D |--------|--------|3--3--10|--------|2*----2*|--------| were
A |--------|--------|3--3--10|--------|0*----2*|--------|
E |3-------|3-3-3-3-|1--1--8-|--------|0*----0*|--------|

e |0*------|0*------|x-------|--------|0*------|0*------| With a death grip on,
B |1*------|1*------|3*------|--------|1*------|1*------| This life that's in 
G |1*------|2*------|0*------|--------|2*------|2*------| transition, this is my
D |1*------|2*------|2*------|--------|2*------|2*------| Therapy, cause
A |0*------|0*------|2*------|--------|0*------|0*------|
E |0*------|0*------|0*------|--------|0*------|0*------|


e |5--5----|3--3----|1--1----|8--8----|3--3----|3--3----| You won't hear me out and
B |5--5----|3--3----|1--1----|8--8----|3--3----|3--3----| that makes
G |5--5----|3--3----|1--1----|8--8----|3--3----|3--3----| God the only one who's left 
D |7--7----|5--5----|3--3----|10-10---|5--5----|5--5----| here listening, this is my
A |7--7----|5--5----|3--3----|10-10---|5--5----|5--5----|
E |5--5----|3--3----|1--1----|8--8----|3--3----|3--3----|

e |1--1--8-|--8---8-|5--5----|3--3----|1--1----|5--5----| Therapy, just
B |1--1--8-|--8---8-|5--5----|3--3----|1--1----|5--5----| Call it what it is, with a
G |1--1--8-|--8---8-|5--5----|3--3----|1--1----|5--5----| Death grip on this life 
D |3--3--10|--10--10|7--7----|5--5----|3--3----|7--7----| always-
A |3--3--10|--10--10|7--7----|5--5----|3--3----|7--7----|
E |1--1--8-|--8---8-|5--5----|3--3----|1--1----|5--5----|

e |3--3----|3--3--3-|1--1--8-|--8---8-|5--5----|3--3----| Transitioning, this is my
B |3--3----|3--3--3-|1--1--8-|--8---8-|5--5----|3--3----| Therapy, cause
G |3--3----|3--3--3-|1--1--8-|--8---8-|5--5----|3--3----| You won't take my calls and
D |5--5----|5--5--5-|3--3--10|--10--10|7--7----|5--5----| that makes-
A |5--5----|5--5--5-|3--3--10|--10--10|7--7----|5--5----|
E |3--3----|3--3--3-|1--1--8-|--8---8-|5--5----|3--3----|

e |1--1----|8--8----|3--3----|3--3----|1--1--1-|--------| God the only one who's left
B |1--1----|8--8----|3--3----|3--3----|1--1--1-|--------| here
G |1--1----|8--8----|3--3----|3--3----|1--1--1-|--------| Listening,
D |3--3----|10-10---|5--5----|5--5----|3--3--3-|--------| To me.
A |3--3----|10-10---|5--5----|5--5----|3--3--3-|--------|
E |1--1----|8--8----|3--3----|3--3----|1--1--1-|--------|

   Bow: (3*) Use a cello or violin bow (whichever one works) to let the guitar 
sound ring out. Rub bow against selected strings to get your sound. It's 
recommended to use an acoustic electric guitar, so that you can switch from the 
overdrive electric sound to the acoustic sound. 

   This piece wasn't really that hard to tab. The basic chords that you use is 
just the Em chord, barred in the 1st, 3rd, 5th, and 8th frets. Problem is, you're 
going really fast, and it's tough to maneuver your hand around. Nonetheless, these 
tabs should give you what you need for Therapy. Thanks to Guitaraddict14 for 
recommending it. 

   If you have any concerns for the piece, (i.e. some notes are wrong, chords are 
wrong) please tell me, or email me at jp_iliketomoveit@yahoo.com . 
    
   Good luck learning this song. (I'm also going to tab the song 'Candlelight', if 
any of you want the tabs for it.)

   -James
Tap to rate this tab
# A B C D E F G H I J K L M N O P Q R S T U V W X Y Z