Song name
# A B C D E F G H I J K L M N O P Q R S T U V W X Y Z

Relient K - K Car tab

I split it into two parts and labeled them Guitar 1 & 2 when you have the soloish parts 
do what you wish with the others that arent labeled.


intro
e|-------------------------------------------------------|
B|-------------------------------------------------------|
G|-----------------------------7-7-7-7-7-7-7-------------|
D|-7-7-7-7-7-7-7-9-9-9-9-9-9-9-7-7-7-7-7-7-7-4-4-4-2-2-2-| x2
A|-7-7-7-7-7-7-7-9-9-9-9-9-9-9-5-5-5-5-5-5-5-4-4-4-2-2-2-|
E|-5-5-5-5-5-5-5-7-7-7-7-7-7-7---------------2-2-2-0-0-0-|
       * * * * *     * * * * *     * * * * * * *

continued intro
Guitar 1
e|----------------------------------------------|
B|---------5-5----------------------------------|
G|-2-224p22----6-6-4-4-6-6-2-224p22-6-66644-4p2-|
D|----------------------------------------------| x2
A|----------------------------------------------|
E|----------------------------------------------|
Guitar 2
e|--------------------------------------|
B|--------------------------------------|
G|-------------------77777777-----------|
D|-77777777-99999999-55555555-4444-2222-| x2
A|-77777777-99999999-55555555-4444-2222-|
E|-55555555-77777777----------2222-0000-|

Verse 1
e|-----------------------------------------------------|
B|-----------------------------------------------------|
G|-----------------------------7-7-x-x-x-x-7-----------|
D|-7-7-x-x-x-x-7/9-9-x-x-x-x-7/7-7-x-x-x-x-7-4444-2222-| x2
A|-7-7-x-x-x-x-7/9-9-x-x-x-x-7/5-5-x-x-x-x-5-4444-2222-|
E|-5-5-x-x-x-x-5/7-7-x-x-x-x-7/--------------2222-0000-|

Pre-Chorus
e|-------------------------------|
B|-------------------------------|
G|-------------------77777777-9~-|
D|-77777777-99999999-77777777-9~-|
A|-77777777-99999999-55555555-7~-|
E|-55555555-77777777-------------|

Chorus
e|-------------------------------------|
B|-------------------------------------|
G|-------------------77777777-99999999-|
D|-77777777-99999999-77777777-99999999-| x4
A|-77777777-99999999-55555555-77777777-|
E|-55555555-77777777-------------------|

Solo
Guitar 1
e|---------------------------------------------------------------|
B|---------------------------------------------------------------|
G|---------------------------------------------------------------|
D|----14p12--------14p12----11~-14p12----12~12-12-12-12-12-12p11-| x2
A|-12~------14-12~-------14-----------14-------------------------|
E|---------------------------------------------------------------|

e|----------------------------------------------------------------------
B|----------------------------------------------------------------------
G|-14-14-17p14-14-17-14-17-14-17-14-17-17-19-19-19-19-19-21-21-21-21-21-
D|----------------------------------------------------------------------
A|----------------------------------------------------------------------
E|----------------------------------------------------------------------

e|----------|
B|----------|
G|-21-21-21-|
D|----------| x2
A|----------|
E|----------|

Replay all intro(s)
Replay Verse 1
Replay Chorus 3x

Outro
e|----------------------------------|
B|----------------------------------|
G|-------------------77777777-9~----|
D|-77777777-99999999-77777777-9~-7~-|
A|-77777777-99999999-55555555-7~-7~-|
E|-55555555-77777777-------------5~-|

END
Tap to rate this tab
 
# A B C D E F G H I J K L M N O P Q R S T U V W X Y Z