Song name
# A B C D E F G H I J K L M N O P Q R S T U V W X Y Z

Relient K - Here I Go chords

Key:
(*)- Palm Mute
(/)- Slide Up
(\)- Slide Down

Intro:
|---------------------------------------------------------------------------|
|---------------------------------------------------------------------------|
|---------------------------------------------------------------------------|
|-5-5-----5-5-----4-7-7------7-7-44\2---5-5-----5-5-----4-7-7-----7-7-77777-|
|-5-5-555-5-5-55/7--7-7-555--7-7------5-5-5-555-5-5-55/7--7-7-555-7-7-55555-|
|-3-3-----3-3-------5-5------5-5--------3-3-----3-3-------5-5-----5-5-55555-|

Verse 1:
|---------------------------------------------------------------------------|
|---------------------------------------------------------------------------|
|---------------------------------------------------------------------------|
|-4-4-4-44-5-5-5-55-7-7-7-77-5-5-5-55-4-4-4-44-5-5-5-55-7-7-7-77-5-5-5-55---|
|-4-4-4-44-5-5-5-55-7-7-7-77-5-5-5-55-4-4-4-44-5-5-5-55-7-7-7-77-5-5-5-55---|
|-2-2-2-22-3-3-3-33-5-5-5-55-3-3-3-33-2-2-2-22-5-5-5-55-5-5-5-55-3-3-3-33---|

Pre-Chorus 1:
|---------------------------------------------------------------------------|
|---------------------------------------------------------------------------|
|---------------------------------------------------------------------------|
|-9999999-7777777-5555555-7777777-9999999-7777777-5555555-77777777----------|
|-9999999-7777777-5555555-5555555-9999999-7777777-5555555-77777777----------|
|-7777777-5555555-3333333-5555555-7777777-5555555-3333333-55555555----------|
                                                          ********

Chorus 1:
|---------------------------------------------------------------------------|
|---------------------------------------------------------------------------|
|-7-------------------------------------------------------------------------|
|-7(x16)-7------9------5-5-5------------------------------------------------|
|-5------7(x16)-9(x16)-5-5-5------------------------------------------------|
|--------5------7------3-3-3------------------------------------------------|

(Repeat Intro)

Verse 2:
|---------------------------------------------------------------------------|
|---------------------------------------------------------------------------|
|---------------------------------------------------------------------------|
|-4-444444-5555555-7777777-5555555-4444444-5555555-7777777-5555555----------|
|-4-444444-5555555-7777777-5555555-4444444-5555555-7777777-5555555----------|
|-2-222222-3333333-5555555-3333333-2222222-3333333-5555555-3333333----------|
    ****** ******* ******* ******* ******* ******* ******* *******

Pre-Chorus 2:
|---------------------------------------------------------------------------|
|---------------------------------------------------------------------------|
|---------------------------------------------------------------------------|
|-9999999-7777777-5555555-7777777-9999999-7777777-5555555-7777777777777777--|
|-9999999-7777777-5555555-5555555-9999999-7777777-5555555-7777777777777777--|
|-7777777-5555555-3333333-5555555-7777777-5555555-3333333-5555555555555555--|
                                                          ****************

Chorus 2:
|---------------------------------------------------------------------------|
|---------------------------------------------------------------------------|
|-7-----------------------------7-------------------------------------------|
|-7(x16)-7------9------5--------7(x16)-7------9------5----------------------|
|-5------7(x16)-9(x16)-5(x16)---5------7(x16)-9(x16)-5(x16)-----------------|
|--------5------7------3---------------5------7------3----------------------|


Bridge:
|---------------------------------------------------------------------------|
|---------------------------------------------------------------------------|
|-------------------7-------------------------------------------------------|
|-99999999-55555555-7(x16)-7------9------5------10-----9-----7--------------|
|-99999999-55555555-5------7(x16)-9(x16)-5(x16)-10(x8)-9(x8)-7(x16)---------|
|-77777777-33333333--------5------7------3------8------7-----5--------------|

Chorus 3:
|---------------------------------------------------------------------------|
|---------------------------------------------------------------------------|
|-7---------------------------7---------------------------------------------|
|-7(x16)-7------9------5------7(x16)-7------10------5-5-5-------------------|
|-5------7(x16)-9(x16)-5(x16)-5------7(x16)-10(x16)-5-5-5-------------------|
|--------5------7------3-------------5------8-------3-5-5-------------------|

The other tab on this wasn't great in my opinion, so I did this. Hope it helps. Rate please.
Tap to rate this tab
 
# A B C D E F G H I J K L M N O P Q R S T U V W X Y Z