Song name
# A B C D E F G H I J K L M N O P Q R S T U V W X Y Z

Relient K - Savannah tab

I tried playing this a few different ways, and I can't settle on which voicing I
think is the best, so I tabbed both.
They sound exactly the same, they're just played in slightly different ways.
Use whichever one is easiest for you!

All strings tuned down three half-steps.  Last chord is an upstroke.

Voicing #1

Db----------------------------------------------------------------------|
Ab----------------------------------------------------------------------|
Fb----------1----------------1-----------4----2----4-----4----2----4----|
Cb-----4---------4------4---------4-------------------------------------|
Gb---2----2----2------2----2----2------4----4----4-----4----4----4------|
Db-0-----0----0-----0-----0----0-----0-----0----0----0-----0----0-------|


Db------------------2------0--------------2-------------------0-|
Ab----------------1------1--------------1---------------------0-|
Fb-----2----2--(2)---------------2--(2)---------1----1----1---1-|
Cb------------------------------------------------------------2-|
Gb---3----3-----------0--------3--------------2----2----2-----2-|
Db-0-----0-------------------0--------------0-----0----0------0-|


Voicing #2
Db----------------------------------------------------------------------|
Ab----------------------------------------------------------------------|
Fb----------1----------------1-----------4----2----4-----4----2----4----|
Cb-----4---------4------4---------4-------------------------------------|
Gb---2----2----2------2----2----2------4----4----4-----4----4----4------|
Db-0-----0----0-----0-----0----0-----0-----0----0----0-----0----0-------|


Db------------------------------------------------------------0-|
Ab------------------7------5-------------7--------------------0-|
Fb----------------5------5-------------5--------1----1----1---1-|
Cb-----7----7--(7)---------------7--(7)-----------------------2-|
Gb---3----3--------------------3--------------2----2----2-----2-|
Db-0-----0------------5------0--------------0-----0----0------0-|
Tap to rate this tab
# A B C D E F G H I J K L M N O P Q R S T U V W X Y Z