Relient K - Hope For Every Fallen Man tab

Tuning:Standard
Intro                               
e|---------------------------------------------------------------------------|
B|---------------------------------------------------------------------------|
G|---------------------------------------------------------------------------|
D|--66666666/988988/44444444/66666666----------------------------------------|
A|--44444444/666666/22222222/44444444----------------------------------------|
E|---------------------------------------------------------------------------|

Verse                             
e|---------------------------------------------------------------------------|
B|---------------------------------------------------------------------------|
G|---------------------------------------------------------------------------|
D|--66666666/988988/44444444/66666666----------------------------------------|
A|--44444444/666666/22222222/44444444----------------------------------------|
E|---------------------------------------------------------------------------|

Bridge  1              
e|---------------------------------------------------------------------------|
B|---------------------------------------------------------------------------|
G|---666~----666666-----------------666666-----------------------------------|
D|---666~----666666---666666666666--666666-----------------------------------|
A|---444~----444444---666666666666--444444-----------------------------------|
E|--------------------444444444444-------------------------------------------|
             ******   ************  ******

Bridge 2
e|---------------------------------------------------------------------------|
B|---------------------------------------------------------------------------|
G|---6666666666666666666--44444444--6666666----------------------------------|
D|---6666666666666666666--44444444--6666666--666666---6666-------------------|
A|---4444444444444444444--22222222--4444444--666666---6666-------------------|
E|-------------------------------------------444444---4444-------------------| ****

Chorus
e|----------------------------------------------------------------------------|
B|-------------------------------------- -------------------------------------|
G|---------------6-66-6-66-------------- ---6---------------------------------|
D|---6-66-6-66---6-66-6-66---6-66-6-66-- ---6---66666666----------------------|
A|---6-66-6-66---4-44-4-44---6-66-6-66-- ---4---66666666----------------------|
E|---4-44-4-44---------------4-44-4-44-- -------44444444----------------------|

Verse 2
e|---------------------------------------------------------------------------|
B|---------------------------------------------------------------------------|
G|-66666666666666666666666666666-----6-6-6~666-------1313131313131313131313--|
D|-66666666666666666666666666666-----6-6-6~666-------1313131313131313131313--|
A|-44444444444444444444444444444-----4-4-4~444-------1111111111111111111111--|
E|---------------------------------------------------------------------------|   
   *****************************

The Piano plays some then
e|---------------------------------------------------------------------------|
B|---------------------------------------------------------------------------|
G|-------------6666----------------------------------------------------------|
D|--6666666----6666----6666666-----------------------------------------------|
A|--6666666----4444----6666666-----------------------------------------------|
E|--4444444------------4444444-----------------------------------------------|

At 2:30 this starts playing  
Bridge 3
e|---------------------------------------------------------------------------|
B|---------------------------------------------------------------------------|
G|--666666666666666-----6----------------------------------------------------|
D|--666666666666666-----6----------------------------------------------------|
A|--444444444444444-----4----------------------------------------------------|
E|---------------------------------------------------------------------------|    
    ***************

*-Palm Mute
Order

Intro X2
Verse 1 X2
Brige 1 X2
Brige 2 X1
Chorus X1
Verse 2 X1
Part after piano
Chorus X2
Brige 3 X1
Chorus X3
Tap to rate this tab
 
# A B C D E F G H I J K L M N O P Q R S T U V W X Y Z