Song name
# A B C D E F G H I J K L M N O P Q R S T U V W X Y Z

Relient K - Chapstick, Chapped Lips & Things Like Chemistry tab

Ok so, who doesnt own a cell phone....... 
e|---------------------------------------------------------------------------| 
B|---------------------------------------------------------------------------| 
G|-44444444444444444444444444444444444444444444444444444444444444444444444444| 
D|-xxxxxxxxxxxxxxxxxxxxxxxxxxxxxxxxxxxxxxxxxxxxxxxxxxxxxxxxxxxxxxxxxxxxxxxxxx| 
A|-22222222222222222222222222222222222222222222222222222222222222222222222222| 
E|---------------------------------------------------------------------------| 

Cause theme parks are so much more fun........ 
e|---------------------------------------------------------------------------| 
B|---------------------------------------------------------------------------| 
G|---------------------------------------------------------------------------| 
D|-22--44-66--99--22--44-----------------------------------------------------| 
A|-22--44-66--99--22--44---(x2)----------------------------------------------| 
E|-00--22-44--77--00--22-----------------------------------------------------| 

The start of something................so i guess ill have to wait a while.... 
e|---------------------------------------------------------------------------| 
B|---------------------------------------------------------------------------| 
G|-44444444------------------------------------------------------------------| 
D|-xxxxxxxx--2222--4444---------------6----2---4-----------------------------| 
A|-22222222--2222--4444---------------6----2---4-----------------------------| 
E|-----------0000--2222---------------4----0---2-----------------------------| 

Ok so, who doesnt own a cell phone....... 
e|---------------------------------------------------------------------------| 
B|---------------------------------------------------------------------------| 
G|---------------------------------------------------------------------------| 
D|-99999999-66666666-44444444-22222222---------------------------------------| 
A|-99999999-66666666-44444444-22222222---------------------------------------| 
E|-77777777-44444444-22222222-00000000---------------------------------------| 

Cause theme parks are so much more fun........ 
e|---------------------------------------------------------------------------| 
B|---------------------------------------------------------------------------| 
G|---------------------------------------------------------------------------| 
D|-22--44-66--99--22--44-----------------------------------------------------| 
A|-22--44-66--99--22--44---(x2)----------------------------------------------| 
E|-00--22-44--77--00--22-----------------------------------------------------| 

The start of something................so i guess ill have to wait a while.... 
e|---------------------------------------------------------------------------| 
B|---------------------------------------------------------------------------| 
G|-44444444------------------------------------------------------------------| 
D|-xxxxxxxx--2222--4444---------------6----2---4-----------------------------| 
A|-22222222--2222--4444---------------6----2---4-----------------------------| 
E|-----------0000--2222---------------4----0---2-----------------------------| 

When it comes to relationships(CLEAN).............chap stick & chapped lips... 
e|-00000000--00000000--------------------------------------------------------| 
B|-00000000--00000000--------------------------------------------------------| 
G|-44444444--00000000--------------------------------------------------------| 
D|-44444444--22222222-----------------------------6--4--2--4-----------------| 
A|-22222222--22222222-----------------------------6--4--2--4-----------------| 
E|-----------00000000-----------------------------4--2--0--2-----------------| 

chap stick, chapped lips and things like....... 
e|---------------------------------------------------------------------------| 
B|---------------------------------------------------------------------------| 
G|-44444444------------------------------------------------------------------| 
D|-44444444--222--444--------------------------------------------------------| 
A|-22222222--222--444--------------------------------------------------------| 
E|-----------000--222--------------------------------------------------------| 

BREAKDOWN PART: 
e|---------------------------------------------------------------------------| 
B|---------------------------------------------------------------------------| 
G|------------4444-4444-44-3333-4444-----------------------------------------| 
D|-6--4--2----4444-4444-44-3333-4444-4---------------------------------------| 
A|-6--4--2----2222-2222-22-1111-2222-4---------------------------------------| 
E|-4--2--0---------------------------2---------------------------------------| 
Little solo thingy: (palm muted) 
e|---------------------------------------------------------------------------| 
B|-5xx4xx2xx4xx--xx-5xx4xx2xx4xx--xx-----------------------------------------| 
G|-------------33---------------33-------------------------------------------| 
D|---------------------------------------------------------------------------| 
A|---------------------------------------------------------------------------| 

I just want to be percieved the way I am..... 
e|---------------------------------------------------------------------------| 
B|---------------------------------------------------------------------------| 
G|-----------------------------------4~~-------------------------------------| 
D|-----------------------------------4~~-------------------------------------| 
A|-----------------------------------2~~-------------------------------------| 
E|---------------------------------------------------------------------------| 

Tap to rate this tab
# A B C D E F G H I J K L M N O P Q R S T U V W X Y Z