Song name
# A B C D E F G H I J K L M N O P Q R S T U V W X Y Z

Relient K - College Kids tab

verse 1: guitar 1
e-------------------------------------------------------------------------->
B-------------------------------------------------------------------------->
G-------------------------------------------------------------------------->
D--------------------------------------2~----------2~--------2~------------>
A-------------------------------------3~----------0~----------------------->
D-----------------------------------------------------------3~------------->
|                                                                          |
|verse 1: guitar 2                                                         |
e-------------------------------------------------------------------------->
B-----------------------------------------------------------------------8~->
G-5~-2222222222-----------------------55555555555-2222222222------------7~->
D-5~-222222222233333333333-5555555555555555555555-222222222233333333333-5~->
A-3~-000000000033333333333-5555555555533333333333-000000000033333333333-5~->
D--------------33333333333-55555555555----------------------33333333333-5~->
     ********************* ********************** *********************
someone please save us, us college kids what my parents told me is what I
did they said go to school and be a college kid but in the end I question
why I did

fill 1: guitar 1
e---------3--------3--------3-----------------3--------3--------3---------->
B----5h6p5----5h6p5----5h6p5----5h635----5h6p5----5h6p5----5h6p5----5h635-->
G--5+-------5+-------5+-------5+-----5-5+-------5+-------5+-------5+------->
D-------------------------------------------------------------------------->
A-------------------------------------------------------------------------->
D-------------------------------------------------------------------------->
|                                                                          |
|fill 1: guitar 2 (r= 10th fret, s= 12th fret)                             |
e-------------------------------------------------------------------------->
B-------------------------------------------------------------------------->
G-555555555777777777------------------5555555555777777777rrrrrrrrrssssssss->
D-5555555557777777773333333335555555555555555555777777777rrrrrrrrrssssssss->
A-3333333335555555553333333335555555553333333333555555555888888888rrrrrrrr->
D-------------------333333333555555555------------------------------------->

verse 2: guitar 2
e----------------------------------------------------------------------->
B----------------------------------------------------------------------->
G-5555555555555555222222222----------5555555555555555222222222---------->
D-555555555555555522222222233333333335555555555555555222222222333333333->
A-333333333333333300000000033333333333333333333333333000000000333333333->
D--------------------------3333333333-------------------------333333333->
   *************** ******** ********* *************** ******** ********
I知 poor, I知 starving, I知 flat broke, I致e got no cash to spend sell all
my books for front row tickets to Dave Matthews band

verse 3: guitar 1
/e------------------------------------------------------------------------>\
|B------------------------------------------------------------------------>|
|G------------------------------------------------------------------------>|
|D--2~---------------2~-------2~--------2~---------------2~--------------->|
|A-3~---------------0~-----------------3~---------------0~---------------->|
|D---------------------------3~------------------------------------------->|
|                                                                          |
|verse 3: guitar 2                                                         |
|e------------------------------------------------------------------------>|
|B------------------------------------------------------------------------>|
|G-55555555555555555222222222----------55555555555555555222222222--------->|
|D-555555555555555552222222223333333333555555555555555552222222225-2-3~--->|
|A-333333333333333330000000003333333333333333333333333330000000005-2-3~--->|
\D---------------------------3333333333--------------------------5-2-3~--->/
    **************** ******** ********* **************** ********
my girlfriend's at another school, I know this year will test her I called,
found out she had three other boyfriends last semester

chorus: guitar 2
e-------------------------------------------------------------------------->
B-------------------------------------------------------------------------->
G--------555555555555555-------------------555555555555555----------------->
D-3-3-35-55555555555555533333333335555555--5555555555555553333333335555555->
A-3-3-35-33333333333333333333333335555555--3333333333333333333333335555555->
D-3-3-35----------------33333333335555555-----------------3333333335555555->
  * * **                          *******
and that's why I say oh no! Not for me, not for me call it torture, call it
university no! arts and crafts is all I need I値l take calligraphy and then
I値l make a fake degree

---REPEAT FILL 1

verse 4: guitar 1
/e------------------------------------------------------------------------>\
|B------------------------------------------------------------------------>|
|G------------------------------------------------------------------------>|
|D--2~---------------2~-------2~--------2~---------------2~--------------->|
|A-3~---------------0~-----------------3~---------------0~---------------->|
|D---------------------------3~------------------------------------------->|
|                                                                          |
|verse 4: guitar 2                                                         |
|e------------------------------------------------------------------------>|
|B------------------------------------------------------------------------>|
|G-55555555555555555222222222----------55555555555555555222222222--------->|
|D-555555555555555552222222223333333333555555555555555552222222225-2-3~--->|
|A-333333333333333330000000003333333333333333333333333330000000005-2-3~--->|
\D---------------------------3333333333--------------------------5-2-3~--->/
80 grand later I found out that all that I had learned is that you should
show up to take your finals and your midterms the party scene is kinda
mean, I think it's sick and twisted the navy showed up at my dorm and
claimed that I enlisted

---REPEAT CHORUS

fill 2: guitar 1
/e-00----1100------00----1100------00----1100------>\
|B-------------3-0-------------3-0-------------3-0->|
|G---0022----00------0022----00------0022----00---->|
|D------------------------------------------------->|
|A------------------------------------------------->|
|D------------------------------------------------->|
|  ************    ************    ************     |
|fill 2: guitar 2                                   |
|e------------------------------------------------->|
|B------------------------------------------------->|
|G-5~------------------55--------------55---------->|
|D-5~--------------33--55--55--7-5-33--55--55--7-5->|
|A-3~--------------33--33--55--7-5-33--33--55--7-5->|
\D-----------------33------55--7-5-33------55--7-5->/

bridge: guitar 1
/e-00----1100------00----1100------00----1100------00----1100--------->\
|B-------------3-0-------------3-0-------------3-0-------------3-0-1~->|
|G---0022----00------0022----00------0022----00------0022----00------->|
|D-------------------------------------------------------------------->|
|A-------------------------------------------------------------------->|
|D-------------------------------------------------------------------->|
|  ************    ************    ************    ************        |
|bridge: guitar 2                                                      |
|e-------------------------------------------------------------------->|
|B-------------------------------------------------------------------->|
|G-----55--------------55--------------55--------------55----------5~->|
|D-33--55--55--7-5-33--55--55--7-5-33--55--55--7-5-33--55--55--7-5-5~->|
|A-33--33--55--7-5-33--33--55--7-5-33--33--55--7-5-33--33--55--7-5-3~->|
\D-33------55--7-5-33------55--7-5-33------55--7-5-33------55--7-5---->/
don't get excited. she'll say "no" without a doubt you see and I致e decided
college girls just won't go out with me they make me nervous and they
always catch me off my guard like cell phone service I drop out cause
college is too hard

it's time to call my father cause it's his alma mater good grades aren't
what they seem I think he knows the dean

bridge: guitar 1
/e-----------------------1100--------------------------------------------->\
|B-----------------------------3-0---------------------------------------->|
|G---------------------22----00------------------------------------------->|
|D------------------------------------------------------------------------>|
|A------------------------------------------------------------------------>|
|D------------------------------------------------------------------------>|
|                      ********                                            |
|bridge: guitar 2                                                          |
|e------------------------------------------------------------------------>|
|B------------------------------------------------------------------------>|
|G-------------------------55555555--------------------------------------->|
|D-777777775555555533333333555555557777777555555533333333555555533333335~->|
|A-777777775555555533333333333333337777777555555533333333555555533333335~->|
\D-777777775555555533333333--------7777777555555533333333555555533333335~->/
   ********************************************************************
it's time to call my father cause it's his alma mater he says he's proud of
me but college always was his dream and I would always say it's not for me

fill 3: guitar 1
e---------3--------3--------3-----------------3--------3--------3---------->
B----5h6p5----5h6p5----5h6p5----5h635----5h6p5----5h6p5----5h6p5----5h635-->
G--5+-------5+-------5+-------5+-----5-5+-------5+-------5+-------5+-----5->
D-------------------------------------------------------------------------->
A-------------------------------------------------------------------------->
D-------------------------------------------------------------------------->
|                                                                          |
|fill 3: guitar 2 (r= 10th fret, s= 12th fret)                             |
e-------------------------------------------------------------------------->
B-------------------------------------------------------------------------->
G-------------------------------------5555555555777777777rrrrrrrrrssssssss->
D-------------------3333333335555555555555555555777777777rrrrrrrrrssssssss->
A-------------------3333333335555555553333333333555555555888888888rrrrrrrr->
D-------------------333333333555555555------------------------------------->

---REPEAT FILL 1

---REPEAT CHORUS

outro: guitar 1
e-------------------------------------------------------------------------->
B-------------------------------------------------------------------------->
G-555555555555555555555555555555555555555555555555555555555555555555555555->
D-555555555555555555555555555555555555555555555555555555555555555555555555->
A-333333333333333333333333333333333333333333333333333333333333333333333333->
D-------------------------------------------------------------------------->
|                                                                          |
|outro: guitar 2                                                           |
e-------------------------------------------------------------------------->
B-------------------------------------------------------------------------->
G-555555555222222222------------------555555555222222222------------------->
D-555555555222222222333333333555555555555555555222222222333333333555555555->
A-333333333000000000333333333555555555333333333000000000333333333555555555->
D-------------------333333333555555555------------------333333333555555555->
someone please save us, us college kids! what my parents told me is what I
did they said go to school and be a college kid but in the end I question
why I did

verse 1: guitar 1
e-------------------------------------------------------------------------->
B-------------------------------------------------------------------------->
G-5555555555555555555555555555555555555555555555555555555555555555~----5~-->
D-5555555555555555555555555555555555555555555555555555555555555555~----5~-->
A-3333333333333333333333333333333333333333333333333333333333333333~----3~-->
D-------------------------------------------------------------------------->
|                                                                          |
|verse 1: guitar 2                                                         |
e-------------------------------------------------------------------------->
B-------------------------------------------------------------------------->
G-555555555222222222------------------555555555222222222---------------5~-->
D-5555555552222222223333333335555555555555555552222222223333333335~----5~-->
A-3333333330000000003333333335555555553333333330000000003333333335~----3~-->
D-------------------333333333555555555------------------3333333335~-------->
do what will make you happy do what you feel is right only but one thing
matters learn how to live your life do what will make God happy do what you
feel is right only but one thing matters learn how to live your life
----------------------------------------------------------------------------
someone please save us, us college kids! what my parents told me is what I
did they said go to school and be a college kid but in the end learn how to
live your life
----------------------------------------------------------------------------
phi, beta, delta, kappa
Tap to rate this tab
# A B C D E F G H I J K L M N O P Q R S T U V W X Y Z