Song name
# A B C D E F G H I J K L M N O P Q R S T U V W X Y Z

Relient K - I Celebrate The Day tab

e---------------------------------------------------------------------------|
B-----3---3---3---3-----3-------3-------3---3---3-----3-------3-------3---3-|
G---2---2---2---2-----2---2---2---2---2---2---2-----2---2---2---2---2---2---|
D-----------------------------------0---------------------------------------|
A-------------------2-------0-----------------------------------------------|
E-------------------------------------------------3-------2-------0---------|
                                            And with this Christmas wish is missed
e---------------------------------------------------------------------------|
B---3---3-----3-------3-------3---3---3--------3------3-------3---3---3-----|
G-2---2-----2---2---2---2---2---2---2---2---2---2---2---2---2---2---2---2---|
D---------------------------------------------------------------------------|
A---------2-------0-------------------------------------------------------0-|
E-------------------------3---------------3-------2-------0-----------------|
     the point I could convey.If only I could find the words to say to let You know how 
You've touched my life,
e---------------------------------------------------------------------------|
B---3---3---3-------2---2---2-------3-------3-------3---3---3-------3-------|
G-2---2---2---2---2---2---2---2---2---2---2---2---2---2---2---2---2---2---2-|
D---------------------------------------------------------------------------|
A---------------0-----------------------------------------------2-------0---|
E-------------------------------3-------2-------0---------------------------|
        because here's where You're finding me: in the exact same place as New Year's Eve
e-------------------------------------------------------------------------------------|
B-3-------3---3---3-------3-------3-------3---3---3-------3---3---3-------2---2---2---|
G---2---2---2---2---2---2---2---2---2---2---2---2---2---2---2---2---2---2---2---2---2-|
D-------------------------------------------------------------------------------------|
A-----------------------------------------------------0---------------0---------------|
E-----3---------------3-------2-------0-----------------------------------------------|
and from the lack of my persistency, we're less than half as close as I wanna be

Chorus:
        G                    A                         Bm
And the first time that You opened Your eyes, did You realize that You
      D
would be my Savior?
        G                  A                      Bm
And the first breath that left Your lips, did You know that it would change
     D
this world forever?


Next verse same as the first:

And so this Christmas I'll compare the things I felt in prior years
To what this midnight made so clear
That You have come to meet me here

Bridge:
G            D
 To look back and think that
Bm               A
 This baby would one day save me
G                D
 In the hope that that You were
Bm                     A
 That You were born so I might live
G            D
 To look back and think that
Bm               A
 This baby would one day save me

Outro:

e------------------------------------------------------------------------------------------------|
B-----3-------3-------3---3---3-------3-------3-------3---3---3-------3-------3-------3---3---3--|
G---2---2---2---2---2---2---2---2---2---2---2---2---2---2---2---2---2---2---2---2---2---2---2---2|
D------------------------------------------------------------------------------------------------|
A------------------------------------------------------------------------------------------------|
E-3-------2-------0---------------3-------2-------0---------------3-------2-------0--------------|
And I...            I celebrate the day...    that You were born to die...
                 e---------------------------------|
                 B-----3-------3-------3---3---3---|
                 G---2---2---2---2---2---2---2---2-|
                 D---------------------------------|
                 A-2-------0-----------------------|
                 E-----------------3---------------|
So I could one day pray for You to save my life...
                 e---------------------------------|
                 B-----3-------3-------3---3---3---|
                 G---2---2---2---2---2---2---2---2-|
                 D---------------------------------|
                 A-2-------0-----------------------|
                 E-----------------3---------------|
                   pray for You to save my life...
                 e---------------------------------|
                 B-----3-------3-------3---3---3---|
                 G---2---2---2---2---2---2---2---2-|
                 D---------------------------------|
                 A-2-------0-----------------------|
                 E-----------------3---------------|
                   pray for You to save my life...   D
Tap to rate this tab
 
# A B C D E F G H I J K L M N O P Q R S T U V W X Y Z