Song name
# A B C D E F G H I J K L M N O P Q R S T U V W X Y Z

Relient K - Sleigh Ride tab

Relient K
Sleigh Ride
Tabbed by: Sloppyjoe24

=======================================================================

Piano Intro

Just hear those...

                 Emaj7    F#m     G#m      A     Emaj7
e|-------------|-------|--(2)--|--(4)--|--(5)--|-------|------11-----|
B|-------------|---9---|---2---|---4---|---5---|---9---|---------12--|
G|-------------|---8---|---2---|---4---|---6---|---8---|--9----------|
D|-------------|---9---|---4---|---6---|---7---|---9---|-------------|
A|-------------|---7---|---4---|---6---|---7---|---7---|-------------|
E|-------------|-------|---2---|---4---|---5---|-------|-------------|

Come on its...
                 Emaj7    F#m     G#m      A     Emaj7
e|-------------|-------|--(2)--|--(4)--|--(5)--|-------|
B|-------------|---9---|---2---|---4---|---5---|---9---|
G|-------------|---8---|---2---|---4---|---6---|---8---|
D|-------------|---9---|---4---|---6---|---7---|---9---|
A|-------------|---7---|---4---|---6---|---7---|---7---|
E|-------------|-------|---2---|---4---|---5---|-------|

Outside the snow...
                 Emaj7    F#m     G#m      A     Emaj7
e|-------------|-------|--(2)--|--(4)--|--(5)--|-------|
B|-------------|---9---|---2---|---4---|---5---|---9---|
G|-------------|---8---|---2---|---4---|---6---|---8---|
D|-------------|---9---|---4---|---6---|---7---|---9---|
A|-------------|---7---|---4---|---6---|---7---|---7---|
E|-------------|-------|---2---|---4---|---5---|-------|

Come on its...
                  C#m     F#m     G#m    Em7/D   Emaj7
e|-------------|-------|--(2)--|--(4)--|-------|-------|
B|-------------|---9---|---2---|---4---|---5---|---9---|
G|-------------|---9---|---2---|---4---|---4---|---8---|
D|-------------|---11--|---4---|---6---|---5---|---9---|
A|-------------|---11--|---4---|---6---|---5---|---7---|
E|-------------|-------|---2---|---4---|-------|-------|

=======================================================================

Drums start to pick up.
Xylophone riff begins = an octave higher than interlude riff

Interlude Riff

e|---------|-------------------|---------------|-------------------|
B|---------|-------------------|---------------|-------------------|
G|---------|-------------------|---------------|-------------------|
D|-----9---|---11-11--9-7--9---|--7-7--6-46---|--6----------------|
A|---7-----|-------------------|---------------|----7--7--4--7-----|
E|---------|-------------------|---------------|-------------------|

Played over verse chords

Verse Chords

 	  E          C#m         F#m          B
e|-----------|------9----|------9----|------7----|
B|------9----|------9----|------10---|------7----|
G|------9----|------9----|------11---|------8----|
D|------9----|------11---|------11---|------9----|
A|---7--7----|------11---|---9--9----|------9----|
E|-----------|---9--9----|-----------|---7--7----|

=======================================================================
 
Verse

           E                 C#m
Just hear those sleigh bells jingling
F#m        B        E        C#m          F#m
Ring ting tingling too
     B         E      C#m
Come on, its lovely weather
       F#m          B            E        C#m         F#m
For a sleigh ride together with you
   B        E        C#m
Outside the snow is falling
     F#m         B            E      C#m       F#m
And friends are calling you who
     B         E      C#m
Come on, its lovely weather 
       F#m         B             E       C#m       F#m      B
For a sleigh ride together with you

=======================================================================

Chorus

    (Bb5)                (Eb5)
Giddy-up, Giddy-up, Giddy-up, lets go
Ab5
Lets look at the show
Bb5                      Eb5          Ab5
Were riding in a wonderland of snow
        Abmaj7                C#5             F#5
Giddy-up, Giddy-up, Giddy-up, its grand, just holding your hand
 (stop)                                    B      B     B 
Were gliding along to a song of a wintery fairy land

=======================================================================

Verse 2

                E        C#m
Our cheeks are nice and rosey
     F#m     B       E       C#m      F#m
And comfy, cosy are we
        B      E     C#m
Were snuggled up together
          F#m        B            E        C#m         F#m
Like the birds of a feather would be
   B        E        C#m
Lets take the road before us
     F#m    B         E      C#m       F#m
And sing a chorus or two
     B         E      C#m
Come on, its lovely weather 
       F#m         B             E       C#m       F#m      B
For a sleigh ride together with you

=======================================================================

Interlude Riff

e|---------|-------------------|---------------|-------------------|
B|---------|-------------------|---------------|-------------------|
G|---------|-------------------|---------------|-------------------|
D|-----9---|---11-11--9-7--9---|--7-7--6-46---|--6----------------|
A|---7-----|-------------------|---------------|----7--7--4--7-----|
E|---------|-------------------|---------------|-------------------|

e|-------------|-------------------|---------------|------------------|
B|-------------|-------------------|---------------|------------------|
G|-------------|-------------------|---------------|------------------|
D|-----------9-|---11-11--9-7--9---|--7-7--6-46---|--6---------------|
A|-------------|-------------------|---------------|----7--7--4--7----|
E|-7-7-7-7-7---|-------------------|---------------|------------------|

=======================================================================

Chorus

=======================================================================

Final Verse:

                 B5           Ab5
Just hear those sleigh bells jingling
C#5       F#5       B5        Ab5          C#5
Ring ting tingling too
     F#m       B5     Ab5
Come on, its lovely weather
       C#5          F#5         B5        Ab5    C#5
For a sleigh ride together with you
    F#5      B5      Ab5
Outside the snow is falling
     C#5         F#5          B5      Ab5     C#5
And friends are calling you who
     F#m       B5     Ab5
Come on, its lovely weather 
       C#5         F#5          B5       Ab5       C#5  
For a sleigh ride together with you
   F#5         B5*      Ab5*
Oh yeah, its lovely weather
       C#5*        F#5*         B5*
For a sleigh ride together with you

=======================================================================

Key

 (Verse)
      E        C#m       F#m        B
e|---------|----9----|----9----|----7----|
B|----9----|----9----|----10---|----7----|
G|----9----|----9----|----11---|----8----|
D|----9----|----11---|----11---|----9----|
A|----7----|----11---|----9----|----9----|
E|---------|----9----|---------|----7----|

 (Chorus)
    Bb5     Eb5     Ab5    Abmaj7   C#5     F#5     B5
e|-------|-------|-------|-------|-------|-------|-------|
B|-------|-------|-------|-------|-------|-------|-------|
G|-------|---8---|-------|---4---|---6---|-------|-------|
D|---8---|---8---|---6---|---4---|---6---|---4---|---9---|
A|---8---|---6---|---6---|---X---|---4---|---4---|---9---|
E|---6---|--(6)--|---4---|---4---|-------|---2---|---7---|

=======================================================================

Tap to rate this tab
 
# A B C D E F G H I J K L M N O P Q R S T U V W X Y Z