Relient K - Pressing On tab

tab by guitarzack1
this is how the song sounded to me, and it seems easier this way than
standard tuning



h=hammer on
/=slide
*=palm mute
~=ring out

Tuning E#A#D#G#B#E#

Intro-
E#---------------------------------|
B#---------------------------------|
G#---------------------------------|
D#-5-2h3------------------2~p0-----|
A#-3-----55-7~p5-7-5h7-33----------|
E#-------33------5-----11----------|

Verse 1-
E#---------------------------------|
B#---------------------------------|  x2
G#-5-55555-5-55555-2-22222---------|
D#-5-55555-5-55555-2-22222-3-33333-|
A#-3-33333-2-22222-0-00000-3-33333-|
E#-------------------------1-11111-|
    *****   *****   *****   *****

E#---------------------------------|
B#---------------------------------|
G#-555555-555555-222222------------|
D#-555555-555555-222222-333333-----|
A#-333333-222222-000000-333333-----|
E#----------------------111111-----|

Chorus 1-
E#-------------------------------------------------------------|
B#-------------------------------------------------------------|
G#-55/777-55/777--9--9/10-10-10--9--9/10 10 10-5-5-5-5---------|
D#-55/777-55/777--9--9/10-10-10--9--9/10-10-10-x-x-x-x-5-5-5-5-| x2
A#-33/555-33/555--7--7/8--9---9--8--8/-9--9--9-3-3-3-3-5-5-5-5-|
E#-----------------------------------------------------3-3-3-3-|

E#---------------|
B#---------------|
G#---------------|
D#-3-3-3-3-5-5-5-|
A#-3-3-3-3-5-5-5-|
E#-1-1-1-1-3-3-3-|

Chorus-

E#-------------------      -----------------|
B#-------------------      -----------------|
G#-555---------------      -----------------|
D#-555-5555-777-3333-   x4 -333333/555~~~~~-|
A#-333-5555-777-3333-      -333333/555~~~~~-|
E#-----3333-555-1111-      -111111/333~~~~~-|

Slow Part-
E#-----------------------------------------------------------------|
B#-----------------------------------------------------------------|
G#-5---5---5---5---4---4---4---4---4---5---5---5---7---7---7---4---|
D#---5---5---5---5---5---5---5---5---5---5---5---5---5---5---5---5-|
A#-----------------------------------------------------------------|
E#-----------------------------------------------------------------|

Ending-
E#-------------------|
B#-------------------|
G#---------5~~~~~~~~-|
D#-3~~-5~~-5~~~~~~~~-|
A#-3~~-5~~-3~~~~~~~~-|
E#-1~~-3~~-----------|

Intro x4
Verse x4
Chorus 1 x2
Chorus x4
Verse x4
Chorus 1 x2
Chorus x4
Chorus x2
Intro x4
Part after chorus x1
Chorus slow x2
Chorus x2
Slow Part x3
Ending x1

lyrics
I think we're going somewhere.
We're on to something good here.
Out of mind, out of state.
Trying to keep my head on straight.
I think we're going somewhere.
We're on to something good here.
There's only one thing left to do.
Drop all I have and go with you.

[Chorus:]
Somewhere back there I left my worries all behind.
My problems fell out of the back of my mind.
We're going and I'm never knowing (never knowing) where we're going.
To go back to where I was would just be wrong.
I'm pressing on.
Pressing on, all my distress is going, going, gone.
(pressing on, pressing on)
And I won't sit back, and take this anymore.
'Cause I'm done with that, I've got one foot out the door.
And to go back where I was would just be wrong
I'm pressing on.

I think we're going somewhere.
We're on to something good here.
Out of mind, out of state.
Trying to keep my head on straight.
I think we're going somewhere.
We're on to something good here.
Adversity, we get around it.
Searched for joy, in you I found it.

[Chourus]

To go back to where I was would just be wrong.
I'm pressing on.
I'm pressing on, all my distress is going, going, gone.
(pressing on, pressing on)
And I won't sit back, and take this anymore.
'Cause I'm done with that, I've got one foot out the door.
And to go back where I was would just be wrong
I'm pressing on.


You look down on me, but you don't look down on me at all.
You smile and laugh, and I feel the love you have for me.
I think we're going somewhere.
We're on to something good here, and we're gonna make it after all.

hope u enjoyed
Tap to rate this tab
 
# A B C D E F G H I J K L M N O P Q R S T U V W X Y Z