Relient K - Sahara tab

Sahara
Relient K
Forget and Not Slow Down 
2009

* Palm Mute
b half bend
B full bend
r release

Tuning: I play it in standard.  I've only found one instance that would support Relient K's
	normal tuning of a half-step down.


Intro: Guitar 1 (dist.) Guitar 2 on repeat (dist.)
|---------------------------------|
|---------------------------------|
|--------------RIFF A-------------|x4
|---------------------------------|
|---------------------------------|
|-2-2-2-2-2-2-2-222-2-2-2-2-2-2-2-|
          * * *           * * * *

Guitar 3 (dist.) on 3rd repeat of intro.
|---------------------------------------------------------------------|
|-----------------7---------------------------------7-----------------|
|---------------------------------------------------------------------|
|-----7---------7-------7-------7---7---7---------7-------7-------7---|
|-9-9---9-----9-----9-9---9-9-9---9---9---9-----9-----9-9---9-9-9---9-|
|---------------------------------------------------------------------|

Guitars 1 & 2
|---------------------------------------------------------------------|
|---------------------------------------------------------------------|
|---------------------------------------------------------------------|
|---------------------------------------------------------------------|
|-2-2-2-2-2-2-2-222-2-2-2-2-2-2-2-2-2-2-2-2-2-2-222-2-2-2-2-----------|
|---------------------------------------------------------------1-1-1-|
          * * *           * * * *         * * *           

|-----------------7----------------------------------7----------------|
|---------------------------------------------------------------------|
|-----7---------7-------7-------7---7---7----------7------7-----------|
|-9-9---9-----9-----9-9---9-9-9---9---9---9-----9-----9-9---9---------|
|---------------------------------------------------------------------|
|---------------------------------------------------------------------|

Verse 1: Guitars 1 & 2
|---------------------------------------------------------|
|---------------------------------------------------------|
|---------------------------------------------------------|
|---------------------------------------------------------|
|---------------------------------------------------------|                                
|-2-2-2-2-2-2-2-2-2-2-2-2-2-2-2-2-2-2-2-2-2-2-2-2-2-2-2-2-| (28x)
  * * * * * * * * * * * * * * * * * * * * * * * * * * * *
Guitars 1 &2
|---------------------------------------------------------|
|---------------------------------------------------------|
|---------------------------------------------------------|
|---------------------------------------------------------|
|-2-2-2-2-2-2-2-2-2-2-2-2-2-2-2-2-2-2-2-2-2-2-2-2-2-2-2-2-|
|---------------------------------------------------------|
  * * * * * * * * * * * * * * * * * * * * * * * * * * * * 
Guitar 3 
|---------------------------------------------------------------------------------|
|-------------------10-10-------------------------10-10---------------------14brbr|
|-------11-11-------------11-11-------11-11-------------11-11---------------------|
|-12-12-------12-12-------------12-12-------12-12-------------12-12-11-11---------|
|---------------------------------------------------------------------------------|
|---------------------------------------------------------------------------------|

Guitars 1 & 2
|---------------------------------------------------------|
|---------------------------------------------------------|
|---------------------------------------------------------|
|---------------------------------------------------------|
|---------------------------------------------------------|
|-0-0-0-0-0-0-0-0-0-0-0-0-0-0-0-0-0-0-0-0-0-0-0-0-0-0-0-0-|
  * * * * * * * * * * * * * * * * * * * * * * * * * * * * 
Guitar 1 
|------------------------------|
|------------------------------|
|------------------------------|
|------------------------------|x2
|-------0----------------------|
|-2-2-2---------2-2-2-2--------|
  
Guitar 2
|------------------------------|
|------------------------------|
|------------------------------|
|------------------------------|x2
|---------4-4-4----------4-4-4-|
|---------5-5-5----------5-5-5-|

Guitar 3
|------------------------------|
|---------10---10--------------|
|------------------------11-11-|
|------------------------------|x2
|------------------------------|
|------------------------------|

Guitars 1 & 2
|---------------------------------------------------------|
|---------------------------------------------------------|
|---------------------------------------------------------|
|---------------------------------------------------------|x2
|---------------------------------------------------------|
|-2-2-2-2-2-2-2-2-2-2-2-2-2-2-2-2-2-2-2-2-2-2-2-2-2-2-2-2-|
  * * * * * * * * * * * * * * * * * * * * * * * * * * * * 
Guitars 1 & 2
|---------------------------------------------------------|
|---------------------------------------------------------|
|---------------------------------------------------------|
|---------------------------------------------------------|
|-2-2-2-2-2-2-2-2-2-2-2-2-2-2-2-2-2-2-2-2-2-2-2-2-2-2-2-2-|
|---------------------------------------------------------|
  * * * * * * * * * * * * * * * * * * * * * * * * * * * * 
Guitars 3 & 4 div.
|-------------------9--9--------------------------9--9-------------------------|
|-------10-10-------10-10-10-10-------10-10-------10-10-10-10------------------|
|-11-11-11-11-11-11-------11-11-11-11-11-11-11-11-------11-11-11-11-9----9BrBr-|
|-12-12-------12-12-------------12-12-------12-12-------------12-12-11---11brbr|
|------------------------------------------------------------------------------|
|------------------------------------------------------------------------------|

Guitars 1 & 2
|---------------------------------------------------------|
|---------------------------------------------------------|
|---------------------------------------------------------|
|---------------------------------------------------------|
|---------------------------------------------------------|
|-0-0-0-0-0-0-0-0-0-0-0-0-0-0-0-0-0-0-0-0-0-0-0-0-0-0-0-0-|
  * * * * * * * * * * * * * * * * * * * * * * * * * * * *
Guitar 1 
|------------------------------|
|------------------------------|
|------------------------------|
|------------------------------|x2
|-------0----------------------|
|-2-2-2---------2-2-2-2--------|
  
Guitar 2
|------------------------------|
|------------------------------|
|------------------------------|
|------------------------------|x2
|---------4-4-4----------4-4-4-|
|---------5-5-5----------5-5-5-|

Guitar 3
|------------------------------|
|---------10---10--------------|
|------------------------11-11-|
|------------------------------|x2
|------------------------------|
|------------------------------|

Chorus: All guitars
  D                     Aadd4    Bm7                     C#m7
|---------------------------------------------------------0-0-0-0-|
|-7-7-7-7-7-7-7-7-7-7-7-7---------3-3-3-3-3-3-3-3-3-3-3-3-0-0-0-0-|
|-7-7-7-7-7-7-7-7-7-7-7-7-7-7-7-7-2-2-2-2-2-2-2-2-2-2-2-2-6-6-6-6-|
|-7-7-7-7-7-7-7-7-7-7-7-7-7-7-7-7-4-4-4-4-4-4-4-4-4-4-4-4-6-6-6-6-|
|-5-5-5-5-5-5-5-5-5-5-5-5-4-4-4-4-2-2-2-2-2-2-2-2-2-2-2-2-4-4-4-4-|
|-----------------------------------------------------------------|
 F#m              E               D                     Aadd4
|-2-2-2-2-2-2-2-2-0-0-0-0-0-0-0-0---------------------------------|
|-2-2-2-2-2-2-2-2-0-0-0-0-0-0-0-0-7-7-7-7-7-7-7-7-7-7-7-7---------|
|-2-2-2-2-2-2-2-2-1-1-1-1-1-1-1-1-7-7-7-7-7-7-7-7-7-7-7-7-7-7-7-7-|
|-4-4-4-4-4-4-4-4-2-2-2-2-2-2-2-2-7-7-7-7-7-7-7-7-7-7-7-7-7-7-7-7-|
|-4-4-4-4-4-4-4-4-2-2-2-2-2-2-2-2-5-5-5-5-5-5-5-5-5-5-5-5-4-4-4-4-|
|-2-2-2-2-2-2-2-2-0-0-0-0-0-0-0-0---------------------------------|
  Bm7            C#m7            
|-----------------0-0-0-0-0---0-|
|-3-3-3-3-3-3-3-3-0-0-0-0-0---0-|
|-2-2-2-2-2-2-2-2-6-6-6-6-6---6-|
|-4-4-4-4-4-4-4-4-6-6-6-6-6---6-|
|-2-2-2-2-2-2-2-2-4-4-4-4-4---4-|
|-------------------------------|

Chorus Outro: Guitar 1 & 2 play Riff A.
Guitar 3
|-2-|
|-2-|
|-2-|
|-4-|
|-4-|
|-2-|

Verse 2 is the same as Verse 1 only Guitar 3 plays its part un-palm muted. You'll 
know where if you listen to the song.

Chorus





That's all I have for now because I'm just too lazy to do it right now. Maybe in 
the future I'll add the bridge. Thanks for 
looking at this tab and if you have rated it, I thank you for that as well.
Tap to rate this tab
 
# A B C D E F G H I J K L M N O P Q R S T U V W X Y Z