Song name
# A B C D E F G H I J K L M N O P Q R S T U V W X Y Z

Relient K - Lion-o tab

[-------------------------------]
[-------------------------------]
[-9999-----99--6--99------------]   INTRO
[-9999--7--99--6--99--99--99----]
[-7777--7--77--4--77--99--99----]
[-------5-------------77--77----]


[----------------------------]
[----------------------------]
[--9999--------6666--44--44--]     MORE INTRO
[--9999--7777--6666--44--44--]
[--7777--7777--4444--22--22--]
[--------5555----------------]



[---------------------------------------------------]
[---------------------------------------------------]
[--99-9--99-9--------------66-6--66-6--44-4--44-4---]   VERSE/CHORUS
[--99-9--99-9--77-7--77-7--66-6--66-6--44-4--44-4---]
[--77-7--77-7--77-7--77-7--44-4--44-4--22-2--22-2---]
[--------------55-5--55-5---------------------------]



[---------------------------]
[-------------45-7-54-45~~--]
[---------------------------]    BRIDGE
[--99999999-----------------]
[--99999999-----------------]
[--77777777-----------------]



[----------------------------------------]
[----------------------------------------]
[--66-666-6------------99-999-9--99-999--]    MORE BRIDGE
[--66-666-6--77-777-7--99-999-9--99-999--]
[--44-444-4--77-777-7--77-777-7--66-666--]
[------------55-555-5--------------------]



[--------------------------------------------]
[--------------------------------------------]
[------6~-----2~-----9-----9-------8----8----]   INTERLUDE
[----6~-----2~-----9-----9---9---9----9---9--]
[--4~-----0~-----7-----7-------6----6--------]
[--------------------------------------------]


      GO BACK TO VERSE OR CHORUS OR WHATEVER




TRANSCRIBED BY: JOSH ANDRUSIK


"I TABBED THIS CRAP BY EAR SON!"
Tap to rate this tab
 
# A B C D E F G H I J K L M N O P Q R S T U V W X Y Z