Relient K - A Penny Loafer Saved Is A Penny Loafer Earned tab

-----------------------------------------------------------------------------
               A PENNY LOAFER SAVED IS A PENNY LOAFER EARNED     RELIENT K
-----------------------------------------------------------------------------

Tabbed by:hurricaneherman
Tuning:Standard

Here is the guitar tab for Relint K's song "A Penny Loafer Saved Is A Penny
Loafer Earned" from their album The Bird And The Bee Side.

~VERSE 1~

NO GUITAR

Brian and me well we both agree that penny loafers are absurd
'Cause I don't know why on earth that you would take your two cents worth
And stick them in your girly shoes
And Dave replied well after all why not at least use quarters
So then you can make a phone call

~VERSE 2~

NO GUITAR

It's finally time time for our victory lap assembled in B one last turn
The matchstick tires spin out on the welcome mat
And the firemen are tired men who can't put out the rug burn and they say

~PRE-CHORUS~

e|1---------------1---------3-----------------------------------|
B|1---------------1---------0-----------------------------------|
G|2---------------2---------0-----------------------------------|
D|3---------------3---------0-----------------------------------|
A|3---------------3---------2-----------------------------------|
E|1---------------1---------3-----------------------------------|
    Cut your hair short and then walk through an airport

e|-----------------------------------|
B|1-----1-------1--------------------|
G|2-----1-------0--------------------|
D|2-----2-------2--------5----3------|
A|-----------------------5----3------|
E|-----------------------3----1------|
     So you can dream of destination

e|0----------0-------------0--------------------0----------------|
B|1----------1-------------1--------------------1----------------|
G|2----------2-------------2--------------------2----------------|
D|2----------2-------------2--------------------2----------------|
A|0----------0-------------0--------------------0----------------|
E|---------------------------------------------------------------|
    Cut your hair short and then walk through an airport

e|0----------0-------------0--------------------0----------------|
B|1----------1-------------1--------------------1----------------|
G|1----------1-------------1--------------------1----------------|
D|2----------2-------------2--------------------2----------------|
A|0----------0-------------0--------------------0----------------|
E|---------------------------------------------------------------|
    Cut your hair short and then walk through an airport

e|0-------0-------0----------0-------1---------------------------|
B|1-------1-------1----------1-------1---------------------------|
G|0-------0-------0----------0-------2---------------------------|
D|2-------2-------2----------2-------2---------------------------|
A|0-------0-------0----------0-------3---------------------------|
E|-----------------------------------1---------------------------|
    While all the while your singing good vibrations

~CHORUS~

NO GUITAR

Your singing good vibrations
Your singing good good good good vibrations
Singing good good good good vibrations
Singing good good good we both agree
Humming good good good hmm hmm hmm hmm

=============================================================================

This guitar part is pretty simple, so it should be 100% correct.
I hope you enjoy this tab, and that it is easy to follow.

Peace, Love, I'm out.
Tap to rate this tab
 
# A B C D E F G H I J K L M N O P Q R S T U V W X Y Z