Song name
# A B C D E F G H I J K L M N O P Q R S T U V W X Y Z

Relient K - Bee Your Man tab

-----------------------------------------------------------------------------
                               BEE YOUR MAN                   RELIENT K
-----------------------------------------------------------------------------

Tabbed by:hurricaneherman
Tuning:Standard

Here is the intro riff from the song "Bee Your Man" from their album
The Bird And The Bee Sides.

e|----------------------------------------------------------------|
B|----------------------------------------------------------------|
G|----2p0---------------------------------------------------------|
D|1/2-----4p3p2-0h1p0---------------------------------------------|
A|--------------------3p0-3/4p0-----------------------------------|
E|------------------------------3-5p4p3-0h3h5p3-0-2\1p0---3-------|

=============================================================================
/ = slide down
\ = slide up
h = hammer on
p = pull off

I was going to tab the whole song, but the rest is just improvisation. I'm
not sure what scale he's using, but if you find that scale you can improvise 
through the song.
Tap to rate this tab
 
# A B C D E F G H I J K L M N O P Q R S T U V W X Y Z