Relient K - Up And Up Acoustic tab

done by finisher5
im 100% sure on this intro!
my first tab so be nice

E------------0-------------------------------0---------------------|
B----------------------------0-------------------------------0-----|
G----1---2-------2---1---2-------1---1---2-------2---1---2-------1-|
D------------------------------------------------------------------|
A------------------------------------------------------------------|
E--0---0---0---0---0---0---0---0---2---2---2---2---2---2---2---2---|

E------------0-------------------------------0---------------------|
B----------------------------0-------------------------------0-----|
G----1---2-------2---1---2-------1---1---2-------2---1---2-------1-|
D------------------------------------------------------------------|
A--0---0---0---0---0---0---0---0-----------------------------------|
E----------------------------------0---0---0---0---0---0---0---0---|
Tap to rate this tab
 
# A B C D E F G H I J K L M N O P Q R S T U V W X Y Z