Song name
# A B C D E F G H I J K L M N O P Q R S T U V W X Y Z

Relient K - Savannah tab

This is most of the song. You can play the whole song with these parts but 
I didn't get super detailed yet, which I will when I get around to it. 

Tuning is half step down dropped D style. So Drop C#

Intro/Verse
|--------------------------------|--------------------------------|
|--------------------------------|--------------------------------|
|--------------------------------|--------------------------------|
|--------2---------4---------2---|--------2---------4---------2---|
|----0---------0---------0-------|----0---------0---------0-------|
|0-----------0---------0---------|0-----------0---------0---------|
 
        
|--------------------------------|--------------------------------|
|--------------------------------|--------------------------------|
|--------------------------------|--------------------------------|
|--------7---------5---------7---|--------7---------5---------7---|
|----5---------5---------5-------|----5---------5---------5-------|
|0-----------0---------0---------|0-----------0---------0---------|
 
       
|--------------------------------|--------------------------------|
|--------------------------------|--------------------------------|
|----------------------------9---|--------7-------------------9---|
|--------5---------5-----8-------|----7-------------5-----8-------|
|----2---------2-------0---------|0-------------2-------0---------|
|0-----------0-------------------|------------0-------------------|
 
       
|--------------------------------|2-------------------------------|
|--------------------------------|3-------------------------------|
|--------------------------------|2-------------------------------|
|--------4---------4---------4---|4-------------------------------|
|----0---------0---------0-------|0-------------------------------|
|0-----------0---------0---------|0-------------------------------|
 
Verse Part 2/Chorus     
|--------------------------------|--------------------------------|
|--------------------------------|--------------------------------|
|--------------------------------|--------------------------------|
|2---2---2-2-2-4---4-4---4-4-4-4-|2---2---2-2-2-4---4-4---4-4-4-4-|
|0---0---0-0-0-0---0-0---0-0-0-0-|0---0---0-0-0-0---0-0---0-0-0-0-|
|0---0---0-0-0-0---0-0---0-0-0-0-|0---0---0-0-0-0---0-0---0-0-0-0-|
 
      
|--------------------------------|--------------------------------|
|--------------------------------|--------------------------------|
|--------------------------------|--------------------------------|
|7---7---7-7-7-5---5-5---5-5-5-5-|7---7---7-7-7-5---5-5---5-5-5-5-|
|5---5---5-5-5-5---5-5---5-5-5-5-|5---5---5-5-5-5---5-5---5-5-5-5-|
|5---5---5-5-5-5---5-5---5-5-5-5-|5---5---5-5-5-5---5-5---5-5-5-5-|
 
       
|--------------------------------|--------------------------------|
|--------------------------------|--------------------------------|
|--------------------------------|--------------------------------|
|5---5---5-5-5-5---5-5---5-5-5-5-|5---5---5-5-5-5---5-5---5-5-5-5-|
|2---2---2-2-2-2---2-2---2-2-2-2-|2---2---2-2-2-2---2-2---2-2-2-2-|
|2---2---2-2-2-2---2-2---2-2-2-2-|2---2---2-2-2-2---2-2---2-2-2-2-|
 
     
|--------------------------------|--------------------------------|
|--------------------------------|--------------------------------|
|--------------------------------|--------------------------------|
|0---4-----4-4-4---4-4-4---4-4-4-|0---4-----4-4-4---4-4-4---4-4-4-|
|0---0-----0-0-0---0-0-0---0-0-0-|0---0-----0-0-0---0-0-0---0-0-0-|
|0---0-----0-0-0---0-0-0---0-0-0-|0---0-----0-0-0---0-0-0---0-0-0-|

PreChorus Part 1
     
|--------------------------------|--------------------------------|
|--------------------------------|--------------------------------|
|--------------------------------|--------------------------------|
|12----12----12--11----11----11--|9-----9-----9---7-----7-----7---|
|----0-----0---------0-----0-----|----0-----0---------0-----0-----|
|--------------------------------|--------------------------------|
                                                                     2x
|--------------------------------|--------------------------------|
|--------------------------------|--------------------------------|
|--------------------------------|--------------------------------|
|--------------------------------|--------------------------------|
|9-----9-----9---7-----7-----7---|5-----5-----5---4-----4-----4---|
|----0-----0---------0-----0-----|----0-----0---------0-----0-----|

PreChorus Part 2
    
|--------------------------------|--------------------------------|
|--------------------------------|--------------------------------|
|----0---------0---------0-------|----0---------0---------0-------|
|--------4---------4---------4---|--------4---------4---------4---|
|0-----------0---------0---------|0-----------0---------0---------|
|--------------------------------|--------------------------------|
       
|--------------------------------|2-------------------------------|
|--------------------------------|3-------------------------------|
|--------------------------------|2-------------------------------|
|--------4---------4---------4---|4-------------------------------|
|----0---------0---------0-------|0-------------------------------|
|0-----------0---------0---------|0-------------------------------|

Repeat Verse 2 for Chorus
 
Tap to rate this tab
# A B C D E F G H I J K L M N O P Q R S T U V W X Y Z