Guitaretab - guitar tabs
Song name
# A B C D E F G H I J K L M N O P Q R S T U V W X Y Z

Relient K - Softer To Me tab

Band: Relient K
Song: Softer To Me
CD: Relient K
Track: 6


Guitar 1: 
E|---------------------------------------------------------------------|
B|---------------------------------------------------------------------|
G|-55-6-5-5565-5----5-------------8------------------------------------|
D|---------------666--666--6686-66-6-5565--556-------------------------|X4
A|---------------------------------------------------------------------|
E|---------------------------------------------------------------------|
              
Guitar 2:
E|-------------|  E|---------------------------------------------------|
B|-------------|  B|---------------------------------------------------|
G|-------------|  G|---------------66666666666-------------88888888888-|
D|-----3-------|  D|----3333333333-66666666666-66666666666-88888888888-|X2
A|-----1-------|  A|----3333333333-44444444444-66666666666-66666666666-|
E|-----1-------|  E|----1111111111-------------44444444444-------------|

              
Verse: x3

E|---------------------------------------------------------------------|
B|---------------------------------------------------------------------|
G|---------66666-------888888888---------------------------------------|
D|---33333-66666-66666-888888888---------------------------------------|X4
A|---33333-44444-66666-666666666---------------------------------------|
E|---11111-------44444-------------------------------------------------|
[ Tab from: http://www.guitaretab.com/r/relient-k/28959.html ]
then
E|------------------|     E|----------------|
B|------------------|     B|----------------|
G|--------6---------|     G|----------------|
D|---3---6-----6----|     D|-55555555555--3-|
A|--3---4-----6-----|     A|-55555555555--3-|
E|-1---------4------|     E|-33333333333--1-|
                            ***********
Chorus:
E|---------------------------------------------------------------------|
B|---------------------------------------------------------------------|
G|----1----6-6---5-6-6-------------------------------------------------|
D|---3-3--6------6-6-6---5-6-5-5-6-------------------------------------|
A|--3----4------6------------------------------------------------------|
E|-1-----------4--------3----------------------------------------------|
              
Then the Loud Part is:
E|---------------------------------------------------------------------|
B|-99999999--11-11-11-11-11-11-11-11--13-13-13-13-13-13-13-13--16------|
G|---------------------------------------------------------------12-12-|
D|---------------------------------------------------------------------|
A|---------------------------------------------------------------------|
E|---------------------------------------------------------------------|
              
E|---------------------------------------------------------------------|
B|---------------------------------------------------------------------|
G|-13-12-12-12-13------------------------------------------------------|
D|---------------------------------------------------------------------|
A|---------------------------------------------------------------------|
E|---------------------------------------------------------------------|
              
Verse
Chorus
Loud Part x2
Intro till end

plz rate!
Related for Softer To Me tab
Advertisement will be closed in 10 seconds