Song name
# A B C D E F G H I J K L M N O P Q R S T U V W X Y Z

Relient K - Candlelight Acoustic tab

Candlelight Acoustic- Relient K

Just thought I would upload this since I was looking at the way other people played it and
thought that this way was better. This is my first tab and i believe this is 100% 
accurate to how Relient K plays it. Also I noticed there was no standard tuning tabs on the 
site so I uploaded this :P

Enjoi.

                           Intro/Verse

e|--------|--------|--------|--------|
b|----7---|-----9--|----11--|----9---|
G|-8---8--|-8----8-|-8----8-|-8----8-|
D|--------|--------|--------|--------|
A|7-7-----|7-7-----|7-7-----|7-7-----|
E|--------|--------|--------|--------|

e|--------|--------|----9-7-|----7-5-|
b|-7-10-7-|-7-12-7-|-7------|-7------|
G|--------|--------|--------|--------|
D|7-7-----|7-7-----|7-7-----|7-7-----|
A|--------|--------|--------|--------|
E|--------|--------|--------|--------|

If you want to try to play the whole song go to the other tab for the chorus and what 
not. It sound fine in standard tuning.
Tap to rate this tab
 
# A B C D E F G H I J K L M N O P Q R S T U V W X Y Z