Song name
# A B C D E F G H I J K L M N O P Q R S T U V W X Y Z

Relient K - Getting Into You chords

Highlighted       Show chord diagrams
Getting Into You. Tabbed by Ryan Bakker. Enjoy.

Intro:
E----------------------------|
B----0-----0-----0-----------|
G-----1-----1-----1----------| x1
D---2-----2-----2------------|
A-------------0--------------|
E-0-----2-----------2--------|

Verse:
E----------------------------|
B----0-----0-----0----2------|
G-----1-----1-----1----2-1---| x3
D---2-----2-----2------------|
A-------------0--------------|
E-0-----2-----------2--------|

Intro x1

Verse x4

Chorus:
 E               Emaj7                   F#sus
I'm getting into you, because you got to me
                    Asus2    E
In a way words can't describe
                 Emaj7                  F#sus
I'm getting into you, because you got to be
                  Asus2
your essential to survive,
      E    (goes immediately back to plucking)
I'm gonna love you with my life
Verse x1
Intro x1
Verse x3
Chorus
Bridge:
Guitar 1
E----------------------------------------------------------------------------|
B----------------------------------------------------------------------------|
G---9----8----6----1----9----8----6----1----9----8----6---1------------------|
D----9----9----6----2----9----9----7----2----9----9----7--2------------------|
A--7----9----7----2----7----9----7----2----7----9----7----2------------------|
E-9----7----5----0----9----7----5----0----9----7----5-----0------------------|

Guitar 2
E----------------12------------------12-------------12-----------------------|
B-9----10---12---12---9----10---12---12---9----12---12-----------------------|
G-9----11---13--------9----11---13--------9----13----------------------------|
D----------------------------------------------------------------------------|
A----------------------------------------------------------------------------|
E----------------------------------------------------------------------------|

Verse x1
Chorus x2
Verse x1
Ending: Guitar one
E---------------------------0--|
B----0-----0-----0----2-----0--|
G-----1-----1-----1----2-1--1--|
D---2-----2-----2-----------2--|
A-------------0-------------2--|
E-0-----2-----------2-------0—-|

        Guitar two
E--------------------------<12>-|
B--------------------------<12>-|
G-------------------------------|
D-------------------------------|
A-------------------------------|
E-------------------------------|

    Chords used.
            E    Emaj7  F#sus    Asus2
E|---0--0----0------0------0---0-|
B|---0--0----0------0------0---0-|
G|---1--13---8------2------2---6-|
D|---2--14---9------4------2---7-|
A|---2--14---7------4------0---0-|
E|---0--0----0------0------x---0-|
  When I made up my mind  And my heart along with that  To live not for myself  But yet
for God Somebody said  Do you know what you are getting yourself into? 
  When I finally ironed out All of my priorities And asked God to remove the doubt That
makes me so unsure of these Things I ask myself I ask myself Do you know what you are
getting yourself into? 
  I'm getting into you Because you got to me In a way words can't describe I'm getting
into you Because I've got to be You're essential to survive I'm going to love you with 
my life 
  When he looked at me and said I kind of view you as a son And for a second our eyes
met And I met that with a question Do you know what you are getting yourself into? 
[ I'm getting into you Because you got to me In a way words can't describe I'm getting
into you Because I've got to be You're essential to survive I'm going to love you with 
my life 
  I've been a liar and I'll never amount to The kind of person you deserve to worship
you You say you will not dwell on what I did but rather what I do you say I love you and
that's what you are getting yourself into 
  I'm getting into you (getting into you) Because you got to me (because you got to
me) In a way words can't describe I'm getting into you (getting into you) Because I've got
to be (because I've got to be) You're essential to survive I'm going to love you with my life 
I'm getting into you (getting into you) Because you got to me (because you got to me) In
a way words can't describe I'm getting into you (getting into you) Because I've got to
be (because I've got to be) You're essential to survive I'm going to love you with my life 
  You said I love you and that's what you are getting yourself into
Tap to rate this tab
# A B C D E F G H I J K L M N O P Q R S T U V W X Y Z