Guitaretab - guitar tabs
Song name
# A B C D E F G H I J K L M N O P Q R S T U V W X Y Z

Relient K - Trademark tab

Trademark
Two Lefts Don't Make A Right... But Three Do
Relient K

Drop D 

Guitar 1 
Guitar 2 


Intro (Main Riff) (Heavy Distortion)
Guitar 1
e|---|^--------------------------------------------------------|
B|---|---------------------------------------------------------|
G|---|---------------------------------------------------------|
D|---|------7-7/9-9-------7-7/9-9-------7-7\6-6-------7-7/9-6--|
A|-3-|-4-4-----------4-4-----------0-0-----------0-0-----------|
D|-3-|-4-4-----------4-4-----------0-0-----------0-0-----------|
                                                                 x2
Guitar 2
e|---|^--------------------------------------------------------|
B|---|---------------------------------------------------------|
G|---|---------------------------------------------------------|
D|---|---------------------------------------------------------|
A|-3-|-4-4-----------4-4-----------0-0-----------0-0-----------|
D|-3-|-4-4-----------4-4-----------0-0-----------0-0-----------|

Harmony
Guitar 1
e|---------------------------------------------------------|
B|---------------------------------------------------------|
G|---------------------------------------------------------|
D|------7-7/9-9-------7-7/9-9-------7-7\6-6-------7-7/9-6--|
A|-4-4-----------4-4-----------0-0-----------0-0-----------|
D|-4-4-----------4-4-----------0-0-----------0-0-----------|
                                                               x2
Guitar 2
e|---------------------------------------------------------|
B|---------------------------------------------------------|
G|------6-6/7-7-------6-6/7-7-------6-6\4-4-------6-6/7-4--|
D|---------------------------------------------------------|
A|-4-4-----------4-4-----------0-0-----------0-0-----------|
D|-4-4-----------4-4-----------0-0-----------0-0-----------|

Pre-Verse Riff (Light Distortion)
Guitar 1 
e|-------------------------------------------------------------|
B|-------------------------------------------------------------|
G|-------------------------------------------------------------|
D|-----11-----7-----14-----12-----11------9-----6------7-----4-|
A|-0-0----0-0---0-0----0-0----0-0-----7-7---7-7----5-5---5-5---|
D|-------------------------------------------------------------|

Guitar 2
e|-------------------------------------------------------------|
B|-------------------------------------------------------------|
G|-2-----------------------------------------------------------|
D|-2-----------------------------------------------------------|
A|-0-----------------------------------------------------------|
D|-------------------------------------------------------------|

Guitar 1
e|-------------------------------------------------------------|
B|-------------------------------------------------------------|
G|-------------------------------------------------------------|
D|-----11-----7-----14-----12-----11------9-----6------7-----4-|
A|-0-0----0-0---0-0----0-0----0-0-----7-7---7-7----5-5---5-5---|
D|-------------------------------------------------------------|

Guitar 2 (with effects) (strum)
e|-------------------------------------------------------------|
B|-------------------------------------------------------------|
G|-2--------------------9---------7----------------------------|
D|-2--------------------9---------7----------------------------|
A|-0--------------------7---------5----------------------------|
D|-------------------------------------------------------------|

Verse
Guitar 1 
e|----------------------------------------------------------------------|
B|----------------------------------------------------------------------|
G|----------------------------------------------------------------------|
D|----------------------------------------------------------------------|
A|----------------------------------------------------------------------|
D|----------------------------------------------------------------------|

Guitar 2 
e|----------------------------------------------------------------------|
B|----------------------------------------------------------------------|
G|-2----------------9----------------11----------------7----------------|
D|-2----------------9----------------11----------------7----------------|
A|-0-00000000000000-7-77777777777777--9-99999999999999-5-55555555555555-|
D|----------------------------------------------------------------------|

Guitar 1 
e|--5---5---5---7----5---5---5----7----5---5---5---7----5---5---5----7--|
B|-5-5-5-5-5-5-5----5-5-5-5-5-5-5-----5-5-5-5-5-5-5----5-5-5-5-5-5-5----|
G|----------------------------------------------------------------------|
D|----------------------------------------------------------------------|
A|----------------------------------------------------------------------|
D|----------------------------------------------------------------------|

Guitar 2 
e|----------------------------------------------------------------------|
B|----------------------------------------------------------------------|
G|-2----------------9----------------11----------------7----------------|
D|-2----------------9----------------11----------------7----------------|
A|-0-00000000000000-7-77777777777777--9-99999999999999-5-55555555555555-|
D|----------------------------------------------------------------------|


Pre-Chorus (Heavy Distortion)
Guitar 1&2
e|----------------------------------------------------------------|
B|----------------------------------------------------------------|
G|----------------------------------------------------------------|x2
D|---------------*------------------------------------------------|
A|-4-4---4-4-4--4-8-8-8-8-8-8-8-8-0-0-0-0-0-0-0-0-2-2-2-2-2-2-2-2-|
D|-4-4---4-4-4--4-8-8-8-8-8-8-8-8-0-0-0-0-0-0-0-0-2-2-2-2-2-2-2-2-|

[ Tab from: http://www.guitaretab.com/r/relient-k/303823.html ]
Guitar 2
e|----------------------------------------------------------------|
B|*---------------------------------------------------------------|
G|-2-----------------------------------------------------22222222-|
D|-2-----------------------------------------------------22222222-|
A|-------------------------------------------------------00000000-|
D|----------------------------------------------------------------|

Chorus  (Strum About 14-16 times)
Guitar 1&2
e|-----------------------|
B|-----------------------|
G|-----------------------|x2
D|-7---------0-----------|
A|-7---------0-----------|
D|-7---------0-----------|

Guitar 2
e|-----------------------------------------------------------|
B|-----------------------------------------------------------|
G|-----------------------------------------------------------|
D|----7----7---7----7----7---7----7----7---7----7----7---7---|
A|-99---99---9---88---88---8---77---77---7---66---66---6-----|
D|-----------------------------------------------------------|

Guitar 1&2
e|-------------------------|
B|-------------------------|
G|-------------------------|
D|-7-7-------7-7-7---------|
A|-5-5-0-0-0-5-5-5-0-0-0-3-|
D|-----0-0-0-------0-0-0-3-|

!!!
Guitar 1
e|---------------------------------------------------------|
B|---------------------------------------------------------|
G|---------------------------------------------------------|
D|------7-7/9-9-------7-7/9-9-------7-7\6-6-------7-7/9-6--|
A|-4-4-----------4-4-----------0-0-----------0-0-----------|
D|-4-4-----------4-4-----------0-0-----------0-0-----------|
                                                                 
Guitar 2
e|---------------------------------------------------------|
B|---------------------------------------------------------|
G|---------------------------------------------------------|
D|---------------------------------------------------------|
A|-4-4-----------4-4-----------0-0-----------0-0-----------|
D|-4-4-----------4-4-----------0-0-----------0-0-----------|
Pause                                                                  
Guitar 2 (with effects) (strum)
e|--------------------------------|
B|--------------------------------|
G|-14-----------------------------|
D|-14-----------------------------|
A|--------------------------------|
D|--------------------------------|

Guitar 1
e|---------------------------------------------------------|
B|---------------------------------------------------------|
G|---------------------------------------------------------|
D|------7-7/9-9-------7-7/9-9-------7-7\6-6-------7-7/9-6--|
A|-4-4-----------4-4-----------0-0-----------0-0-----------|
D|-4-4-----------4-4-----------0-0-----------0-0-----------|
                                                                 
Guitar 2 (with effects) (strum)
e|---------------------------------------------------------|
B|---------------------------------------------------------|
G|-14------------------------------------------------------|
D|-14------------------------------------------------------|
A|---------------------------------------------------------|
D|---------------------------------------------------------|

Harmony
Guitar 1
e|---------------------------------------------------------|
B|---------------------------------------------------------|
G|---------------------------------------------------------|
D|------7-7/9-9-------7-7/9-9-------7-7\6-6-------7-7/9-6--|
A|-4-4-----------4-4-----------0-0-----------0-0-----------|
D|-4-4-----------4-4-----------0-0-----------0-0-----------|
                                                               
Guitar 2
e|---------------------------------------------------------|
B|---------------------------------------------------------|
G|------6-6/7-7-------6-6/7-7-------6-6\4-4-------6-6/7-4--|
D|---------------------------------------------------------|
A|-4-4-----------4-4-----------0-0-----------0-0-----------|
D|-4-4-----------4-4-----------0-0-----------0-0-----------|

Guitar 1
e|-------------------------------------------------------------|
B|-------------------------------------------------------------|
G|-------------------------------------------------------------|
D|-----11-----7-----14-----12-----11------9-----6------7-----4-|
A|-0-0----0-0---0-0----0-0----0-0-----7-7---7-7----5-5---5-5---|
D|-------------------------------------------------------------|
                                                                 x2
Guitar 2 (strum)
e|-------------------------------------------------------------|
B|-------------------------------------------------------------|
G|-2--------------------9---------7----------------------------|
D|-2--------------------9---------7----------------------------|
A|-0--------------------7---------5----------------------------|
D|-------------------------------------------------------------|


Second Verse
Guitar 1&2
e|------------------------------|
B|------------------------------|
G|------------------------------|
D|-Repeat Verse-----------------|
A|------------------------------|
D|------------------------------|

Repeat Pre-Chorus
Repeat Chorus

Solo
Guitar 1 (with effect)
e|-----------------------------------|
B|-----------------------------------|
G|-----------------------------------|x4
D|-12--11-9----9-11---11-9---9-7-----|
A|----------12------9------7---------|
D|-----------------------------------|

Solo Rhythm 
Guitar 2 (strum)
e|------------------------------------|
B|------------------------------------|
G|-2----------------------------------|
D|-2----------------------------------|x4
A|-0----------0-----------2-----------|
D|------------0-----------2-----------|

Repeat Chorus x2

End Of Second Chorus
Guitar 2 (with effects)
e|-------------------------|
B|-------------------------|
G|-------------------------|
D|-7--7--7--7--7--7--7--7--|
A|-5--5--5--5--5--5--5--5--|
D|-------------------------|

Guitar 1&2 (with effect)
e|-------------------------------------------------|
B|-------------------------------------------------|
G|-------------------------------------------------|
D|-7--7--7--7--7--7--7--7--7--7--7--7--7--7--7--7--|
A|-9--9--9--9--8--8--8--8--7--7--7--7--6--6--6--6--|
D|-------------------------------------------------|

Guitar 1&2
e|----------------------|
B|----------------------|
G|----------------------|
D|-7-7-------7-7-7------|
A|-5-5-0-0-0-5-5-5-0-0--|
D|-----0-0-0-------0-0--|

Repeat Solo (ends on A5)
Related for Trademark tab
Trademark chords by Relient K