Song name
# A B C D E F G H I J K L M N O P Q R S T U V W X Y Z

Relient K - My Girlfriend tab

Song: My Girlfriend
Artist: Relient K
Album: (Self-Titled)
Tabber: aceguitarock
Tuning: Standard

* = palm mute
h = hammer on
p = pull off

I divided up some parts of the song into two guitars.

Intro:
|---------------------------------------------|
|---------------------------------------------|
|--------------------------7777-5555-99-77----|
|-5555555555555555-x2-5555-7777-5555-99-77-x2-|
|-5555555555555555----5555-5555-3333-77-55----|
|-3333333333333333----3333--------------------|

Verse 1:
Gtr. 1:
|-------------------------|
|-------------------------|
|------7777-5555-99-77----|
|-5555-7777-5555-99-77-x4-| 
|-5555-5555-3333-77-55----|
|-3333--------------------|

Gtr. 2: (Come in on Gtr. 1's 3rd and 4th time)
|---------------------------|
|----------5-88------3------|
|-4h5p4-----------444-4-----|
|------77----------------x2-|
|---------------------------|
|---------------------------|

Chorus 1:
|---------------------|--------------------------------------------|
|---------------------|--------------------------------------------|
|---55---55---77---77-|-------------77---77---55---55---77---77----|
|---55---55---77---77-|---55---55---77---77---55---55---77---77-x4-|
|-3333-3333-5555-5555-|---55---55-5555-5555-3333-3333-5555-5555----|
|---------------------|-3333-3333----------------------------------|
PM**   **   **   **     **   **   **   **   **   **   **   **

Interlude:
Gtr. 1:
|-------------------------|
|-------------------------|
|------7777-5555-99-77----|
|-5555-7777-5555-99-77-x4-| 
|-5555-5555-3333-77-55----|
|-3333--------------------|

Gtr. 2: 
|---------------------------|
|----------5-88------3------|
|-4h5p4-----------444-4-----|
|------77----------------x2-|
|---------------------------|
|---------------------------|

Verse 2:
|----------------------------------------|
|----------------------------------------|
|------7777-5555-99-77---------7777------|
|-5555-7777-5555-99-77-x3-5555-7777------|
|-5555-5555-3333-77-55----5555-5555------|
|-3333--------------------3333-----------|

Chorus 2:           (On 4th repeat, end on D instead of the last set of D's)
|---------------------|--------------------------------------------|
|---------------------|--------------------------------------------|
|---55---55---77---77-|-------------77---77---55---55---77---77----|
|---55---55---77---77-|---55---55---77---77---55---55---77---77-x4-|
|-3333-3333-5555-5555-|---55---55-5555-5555-3333-3333-5555-5555----|
|---------------------|-3333-3333----------------------------------|
PM**   **   **   **     **   **   **   **   **   **   **   **

Outro:
|--------------------------------------------------------------------------|
|--------------------------------------------------------------------------|
|----------77777777-55555555-77777777-------------77777777-55555555-7------|
|-55555555-77777777-55555555-77777777-x4-55555555-77777777-55555555-7------|
|-55555555-55555555-33333333-55555555----55555555-55555555-33333333-5------|
|-33333333-------------------------------33333333--------------------------|

End on
|----------|
|----------|
|----------|
|-5--------|
|-5--------|
|-3--------|
Tap to rate this tab
 
# A B C D E F G H I J K L M N O P Q R S T U V W X Y Z