Song name
# A B C D E F G H I J K L M N O P Q R S T U V W X Y Z

Relient K - In Love With The 80s tab

Help us improve GuitareTab! Take a short survey!
K...So, heres my version of the song. My guitar teacher, Ryan and I figured
this one out. As far as Im concerned, its right. I dont know the solo at
the end, but I know most of it!

The intro is played by some sound on a keyboard that my cousin knows. So yeah,
But heres the rhythm guitar for it.

Play this part three times after intro goes once. Vocals come in on the 
second time.
Verse 1:                          x3  Chorus 1:              x2
e----------------------------------|-------------------------|
B----------------------------------|-------------------------|
G----------------------------------|---55----33---55----3-3-3|
D----------------------------------|-3-55-55-33-3-55-55-3-3-3|
A---------33333333--------11111111-|-3-33-55-11-3-33-55-1-1-1|
E-11111111--------33333333---------|-1----33----1----33------|


Verse 2:                          x2           
e----------------------------------|
B----------------------------------|
G----------------------------------|
D----------------------------------|
A---------33333333--------11111111-|
E-11111111--------33333333---------|


Chorus 2:                         
e-------------------------------------------------------------------|
B-------------------------------------------------------------------|
G---55----33---55----3-3-3---55----3---55------------------33335555-|
D-3-55-55-33-3-55-55-3-3-3-3-55-55-3-3-55-5555555555555555-33335555-|
A-3-33-55-11-3-33-55-1-1-1-3-33-55-1-3-33-5555555555555555-11113333-|
E-1----33----1----33-------1----33---1----3333333333333333----------|

Verse 2 1/2 (Do do do do do):                                     x1
e------------------------------------------------------------------|
B------------------------------------------------------------------|
G------------------------------------------------------------------|
D------------------------------------------------------------------|
A---------33333333--------11111111--------33333333-----------------|
E-11111111--------33333333--------11111111--------3333333333333333-|

Chorus 3:                         x2
e-----------------------------------|
B-----------------------------------|
G---------55555555----------33333333|
D-3-3-3-3-55555555-55555555-33333333|
A-3-3-3-3-33333333-55555555-11111111|
E-1-1-1-1----------33333333---------|

Verse 3:                                                      x2
e--------------------------------------------------------------|
B--------------------------------------------------------------|
G-------------------------------------------------------3------|
D--------------------------------------------------5----3------|
A---------33333333--------11111111--------33333333-5----1------|
E-11111111--------33333333--------11111111---------3-----------|


Chorus 4:                         x3                            x1
e-----------------------------------|----------------------------|
B-----------------------------------|----------------------------|
G---------55555555----------33333333|---------55555555------3----|
D-3-3-3-3-55555555-55555555-33333333|-3-3-3-3-55555555-5----3----|
A-3-3-3-3-33333333-55555555-11111111|-3-3-3-3-33333333-5----1----|
E-1-1-1-1----------33333333---------|-1-1-1-1----------3---------|

Outro:  From here, it fades out and the solo thing goes over it. But when I 
        play this song with my band, we end like this:
e----------------------------------| ----------------------------------|
B----------------------------------| ----------------------------------|
G----------------------------------| -----------------------3----------|
D----------------------------------| ------------------5----3----3~~~--|
A---------33333333--------11111111-| ---------33333333-5----1----3~~~--|
E-11111111--------33333333---------| -11111111---------3---------1~~~--|


So yeah! Thats how I play it and it sounds right to me! Leave me comments 
and stuff! Email me at commandercandy@hotmail.com if youve got anything to 
say! 

-Kristen
Related for In Love With The 80s tab