Guitaretab - guitar tabs
Song name
# A B C D E F G H I J K L M N O P Q R S T U V W X Y Z

Relient K - The Pirates Who Dont Do Anything tab

relient k, the pirates who don't do anything
    2002 gotee records
     tabbed by Justin Arant
      fbidude20@yahoo.com

Chorus:
e[-----------------------------------------------]
B[-----------------------------------------------]
G[--------7~----------------------7~-------------]
D[--7~----7~----7~----0~----7~----7~----7-0-7----]
A[--7~----5~----7~----0~----7~----5~----7-0-7----]
E[--5~----------5~----------5~----------5---5----]

Verse 1:
e[----------------------------------------------------]
B[----------------------------------------------------]
G[-------7~---------------------7~--------------------]
D[--7~---7~-7~-7~---0~----7~----7~-7~----7~-0~-7~-----]
A[--7~---5~-7~-7~---0~----7~----5~-7~----7~-0~-7~-----]
E[--5~------5~-5~---------5~-------5~----5~----5~-----]

Chorus 2:
e[--------------------------------------------]
B[--------------------------------------------]
G[--3----8----3---------3----8----3---3-------]
D[--3----8----3----4----3----8----3-2-3-------]
A[--1----6----1----4----1----6----1-2-1-------]
E[-----------------2----------------1---------]
                 [P.M]

e[----------|            |------------------------------|
B[--10------|            |----10)20X---10---6---10------|
G[----------| pause till |------------------------------|
D[----------| P.M is     |------------------------------|
A[----------| finished   |------------------------------|
E[----------|            |------------------------------|


Verse 2:
e[-----------------------------------------------------]
B[-----------------------------------------------------]
G[--3~----8~--3~-------3~----8~-------------8-----3----]
D[--3~----8~--3~-3~----3~----8~----0~-8~----8--3--3----]
A[--1~----6~--1~-3~----1~----6~----0~-8~----6--3--1----]
E[---------------1~-------------------6~-------1-------]

Chorus 3:
e[--------------------------------------------]
B[--------------------------------------------]
G[--4---------4---------4---------4-----------]
D[--4----0----4----3----4----0----4----0------]
A[--2----0----2----3----2----0----2----0------]
E[-----------------1--------------------------]
                 [P.M]
[ Tab from: http://www.guitaretab.com/r/relient-k/33079.html ]
e[----------|            |------------]
B[--12)20X--|            |----12)20X--]
G[----------| pause till |------------]
D[----------| P.M is     |------------]
A[----------| finished   |------------]
E[----------|            |------------]

Verse 3:
e[----------------------------------------------]
B[----------------------------------------------]
G[--4-------4-------4----------4-------4-----4--]
D[--4----0--4--4----4----0~----4--4----4--0--4--]
A[--2----0--2--4----2----0~----2--4----2--0--2--]
E[-------------2------------------2-------------]


Bridge:
e[----------------------------------]
B[----------------------------------]
G[-----------------11111111---------]  this can be played
D[---------44444444--------22222222-]  as the bass part.
A[-22222222-------------------------]
E[----------------------------------] (3x)

Verse 4:
e[-11-------11-------11-11-------11-------11-11------11---------11-]
B[-------12-------12----------12-------12---------12------12-------]
G[----11-------11----------10-------10----------9-------9----------]
D[-----------------------------------------------------------------]
A[-----------------------------------------------------------------]
E[-----------------------------------------------------------------]

e[-------11-------11-11-------11-11-------11--11-]
B[----12-------12----------12----------12-----12-]
G[-10-------10----------11----------11--------10-]
D[-----------------------------------------------]
A[-----------------------------------------------]
E[-----------------------------------------------]


e[----------------------]
B[----------------------]
G[---------4------------]
D[--0--4---4------5~----]
A[--0--4---2------5~----]
E[-----2----------3~----]


Chorus 4:
e[---------------------------------------------]
B[---------------------------------------------]
G[--5-------5---------5---------5--------5-----]
D[--5---3---5----5----5----3----5----5---5-----]
A[--3---3---3----5----3----3----3----5---3-----]
E[------1--------3---------1---------3---------]

e[----------------------------------------|
B[----------------------------------------|
G[--12~---12)20X---17---------------------|
D[----------------------------------------|
A[----------------------------------------|
E[----------------------------------------|
Related for The Pirates Who Dont Do Anything tab