Guitaretab - guitar tabs
Song name
# A B C D E F G H I J K L M N O P Q R S T U V W X Y Z

Relient K - Getting Into You tab

Relient K
Getting Into You
Tapped By: JesusFreak37

I saw that no one tab this song, which is pretty wierd, because this is an amazing song. 
just had to tap it, especially because no one else did!!! Here you go have fun.
P.S. Slow song so if you don't like acoustic, or slow song, it is not a song you will 
But you should still try playing this song.

Have fun and RoCK oN!!!

Intro:
E|----------------------------|
B|----0-----0-----0-----------|
G|-----1-----1-----1----------|
D|---2-----2-----2------------|
A|-------------0--------------|
E|-0-----2-----------2--------|


Verse:
E|----------------------------|----------------------------|
B|----0-----0-----0----2------|----0-----0-----0----2------|
G|-----1-----1-----1----2-1---|-----1-----1-----1----2-1---|
D|---2-----2-----2------------|---2-----2-----2------------|
A|-------------0--------------|-------------0--------------|
E|-0-----2-----------2--------|-0-----2-----------2--------|

E|----------------------------|----------------------------|
B|----0-----0-----0----2------|----0-----0-----0-----------|
G|-----1-----1-----1----2-1---|-----1-----1-----1----------|
D|---2-----2-----2------------|---2-----2-----2------------|
A|-------------0--------------|-------------0--------------|
E|-0-----2-----------2--------|-0-----2-----------2--------|


E|----------------------------|----------------------------|
B|----0-----0-----0----2------|----0-----0-----0----2------|
G|-----1-----1-----1----2-1---|-----1-----1-----1----2-1---|
D|---2-----2-----2------------|---2-----2-----2------------|
A|-------------0--------------|-------------0--------------|
E|-0-----2-----------2--------|-0-----2-----------2--------|

E|----------------------------|----------------------------|
B|----0-----0-----0----2------|----0-----0-----0----2------|
G|-----1-----1-----1----2-1---|-----1-----1-----1----2-1---|
D|---2-----2-----2------------|---2-----2-----2------------|
A|-------------0--------------|-------------0--------------|
E|-0-----2-----------2--------|-0-----2-----------2--------|


Chorus:
E       B       F#sus      A2    (Play Chorus x2)

E-0     E-0     E-0        E-0-|
B-0     B-4     B-0        B-0-|
G-1     G-4     G-2        G-2-|
D-2     D-4     D-4        D-2-|
A-2     A-2     A-4        A-0-|
E-0     E-0     E-0        E-0-|

[ Tab from: http://www.guitaretab.com/r/relient-k/33179.html ]
E|----------------------------|----------------------------|
B|----0-----0-----0----2------|----0-----0-----0-----------|
G|-----1-----1-----1----2-1---|-----1-----1-----1----------|
D|---2-----2-----2------------|---2-----2-----2------------|
A|-------------0--------------|-------------0--------------|
E|-0-----2-----------2--------|-0-----2-----------2--------|


Verse:

E|----------------------------|----------------------------|
B|----0-----0-----0----2------|----0-----0-----0----2------|
G|-----1-----1-----1----2-1---|-----1-----1-----1----2-1---|
D|---2-----2-----2------------|---2-----2-----2------------|
A|-------------0--------------|-------------0--------------|
E|-0-----2-----------2--------|-0-----2-----------2--------|

E|----------------------------|
B|----0-----0-----0----2------|
G|-----1-----1-----1----2-1---|
D|---2-----2-----2------------|
A|-------------0--------------|
E|-0-----2-----------2--------|


Chorus:
E       B       F#sus   A2    (Play Chorus x2)

E-0     E-0     E-0     E-0-|
B-0     B-4     B-0     B-0-|
G-1     G-4     G-0     G-2-|
D-2     D-4     D-4     D-2-|
A-2     A-2     A-4     A-0-|
E-0     E-0     E-2     E-0-|


Bridge:

Guitar 1
E|-----------------------------------------------------------|
B|-----------------------------------------------------------|
G|---9----8----6----1----9----8----6----1----9----8----6---1-|
D|----9----9----6----2----9----9----7----2----9----9----7--2-|
A|--7----9----7----2----7----9----7----2----7----9----7----2-|
E|-9----7----5----0----9----7----5----0----9----7----5-----0-|

Guitar 2
E|----------------12------------------12-------------12-------|
B|-9----10---12---12---9----10---12---12---9----12---12-------|
G|-9----11---13--------9----11---13--------9----13------------|
D|------------------------------------------------------------|
A|------------------------------------------------------------|
E|------------------------------------------------------------|

E|------------------------------|
B|----0-----0-----0----2--------|
G|-----1-----1-----1----2-1-----|
D|---2-----2-----2--------------|
A-------------0-----------------|
E|-0-----2-----------2----------|


Chorus:
E       B       F#sus      A2    (Play Chorus x4)

E-0     E-0     E-0        E-0-|
B-0     B-4     B-0        B-0-|
G-1     G-4     G-2        G-2-|
D-2     D-4     D-4        D-2-|
A-2     A-2     A-4        A-0-|
E-0     E-0     E-0        E-0-|

E|----------------------------|
B|----0-----0-----0----2------|
G|-----1-----1-----1----2-1---|
D|---2-----2-----2------------|
A|-------------0--------------|
E|-0-----2-----------2--------|


Ending:
E|---------------------------0-|
B|----0-----0-----0----2-----0-|
G|-----1-----1-----1----2-1--1-|
D|---2-----2-----2-----------2-|
A|-------------0-------------2-|
E|-0-----2-----------2-------0|
Related for Getting Into You tab