Song name
# A B C D E F G H I J K L M N O P Q R S T U V W X Y Z

Relient K - Thats My Jam tab

e---------------------------------------------------------------------------|
B---------------------------------------------------------------------------|
G---------------------------------------------------------------------------|
D-----2--4---------2--4----------2--4----------2--4-------------------------|
A--2--0--2-2----2--0--2--2----2--0--2--2----2--0--2--2----------------------|
E--0-------0----0--------0----0--------0----0--------0----------------------|
Turn up the ! I'm Smashing !Wish Britney   So Sick
record 'cause!   pumpkins   ! hit me one  ! of counting
 the song's  !  like  it's  !  more time  ! crows with
 just begun  !  November 1  !on the phone ! Mr. Jones
______________________________________________________________________________

e---------------------------------------------------------------------------|
B---------------------------------------------------------------------------|
G---------------------------------------------------------------------------|
D--9---------2---------9---------2---------9---------2---------9---------2--|
A--7---------0---------7---------0---------7---------0---------7---------0--|
E---------------------------------------------------------------------------|
My Sister Hazel knows that its all for you
am I a blur or do you sing my song too?

_____________________________________________________________________________

Chorus:

e---------------------------------------------------------------------------|
B---------------------------------------------------------------------------|
G---------------------------------------------------------------------------|
D--4------2----------4------------------------------------------------------|
A--2------0----------2------2-----------------------------------------------|
E---------------------------0-----------------------------------------------|
Wooo oooo hoooooo    Summer Time
Wooo oooo hoooooo    back in '99
Wooo oooo hoooooo    our first dance
Wooo oooo hoooooo    That's my Jam

_____________________________________________________________________________

Verse 2: (Same As First Verse)

e---------------------------------------------------------------------------|
B---------------------------------------------------------------------------|
G---------------------------------------------------------------------------|
D-----2--4-----------REPEAT-RIFF--------------------------------------------|
A--2--0--2--2---------------------------------------------------------------|
E--0--------0---------------------------------------------------------------|
Jane's addicted,and Alice is in Chains,U2 like to move me in mysterious ways
We're chasing waterfalls,and wanderwalls,my jewel you were meant for me,so save my soul, 
Add seven mary three plus 98 degrees, Eve 6 times 311,that's you and me.
_____________________________________________________________________________

Chorus^
_____________________________________________________________________________

Verse 3: (Same as First and Second verse)

e---------------------------------------------------------------------------|
B---------------------------------------------------------------------------|
G---------------------------------------------------------------------------|
D-----2--4--------REPEAT-RIFF-----------------------------------------------|
A--2--0--2--2---------------------------------------------------------------|
E--0--------0---------------------------------------------------------------|

This Blessed union of collective souls,is the only world we know,this    heart-shaped 
candle box burns just for you, you aught to know.
_____________________________________________________________________________

Chorus (Same riff as before but slightly different words)

e---------------------------------------------------------------------------|
B---------------------------------------------------------------------------|
G---------------------------------------------------------------------------|
D--4--2--4--------REPEAT-RIFF-----------------------------------------------|
A--2--0--2--2---------------------------------------------------------------|
E-----------0---------------------------------------------------------------|
Wooo oooo Hoooooo Summer Time
Wooo oooo Hoooooo Feelin' so sublime
Wooo oooo Hoooooo Boy to man
Wooo oooo Hoooooo My Pearl Jam
_____________________________________________________________________________

Chorus (Same Riff as before)

e----------------------------------------------------------------------------|
B----------------------------------------------------------------------------|
G----------------------------------------------------------------------------|
D--4--2--4---------REPEAT-RIFF-----------------------------------------------|
A--2--0--2--2----------------------------------------------------------------|
E-----------0----------------------------------------------------------------|
Wooo oooo Hoooooo Summer Time
Wooo oooo Hoooooo Back in '99
Wooo oooo Hoooooo Take my Hand
Wooo oooo Hoooooo Baby your my jam
_____________________________________________________________________________

 HOPE THIS HELPED, I figured it out by ear since it's a brand new song.
 Come back to my page i'm gonna post more tabs and Chords! :)
 P.S. Sorry about the screw up with the lyrics on the first verse, i could fix it.
Tap to rate this tab
 
# A B C D E F G H I J K L M N O P Q R S T U V W X Y Z