Song name
# A B C D E F G H I J K L M N O P Q R S T U V W X Y Z

Relient K - Collapsible Lung tab

Relient K - Collapsible Lung - Intro, verse, and Chorus tabs.
I figured this out by ear, but it sounds pretty darn acurate!

Intro/Verse

e-------------------------------------------------------------|
B------7----------------0-------2-------0---------------------|
G-----7----------------0-------2-------0----------------------|
D---------------------------------------------X-a-few---------|
A-------------------------------------------------------------|
E--10---slide-down--3-------5--------3------------------------|


Chorus:  (I think this part is the chorus cause it says "I'm gettin' by with my 
collapsible lung"


e--------------------------------------------------------------|
B--------------------------------------------------------------|
G---7----------------------------------------------------------|
D---7------------------------7--------4------------------------|
A---5------------------------7--------4------------------------|
E----------------------------5--------2------------------------|
   I'm getting by with my collapsible lung,


e------------------------------------------------------------|
B------------------------------------------------------------|
G------------------------------------------------------------|
D-5-------------------------------7--------------------------|
A-5-------------------------------7--------------------------|
E-3-------------------------------5--------------------------|
   It's a good time, to dream one night at a time, now,

So I don't have the whole song, but this is before the album came out, and this is the 
first tab of this song, so hopefully it helped!   :)
Tap to rate this tab
# A B C D E F G H I J K L M N O P Q R S T U V W X Y Z