Song name
# A B C D E F G H I J K L M N O P Q R S T U V W X Y Z

Relient K - I Dont Need A Soul tab

This song is awesome, period. I spent part of my snow day (2/13/14) figuring it out. 
This song has a good amount of moving parts, enjoy! :)

Key:
h  hammer-on
~  let ring
<> pinch harmonic
#  staccato (NOT hash tag!)
`  tremolo pick
x  dead note

Intro            `````````````````````````````````````````````````````````
E|-----|--------|-----------|-----------|-------|-----------|---------11-|
B|-----|--------|-----------|-----------|--11-9-|-----------|------11----|
G|-11~-|--<11>~-|-11-8------|------8----|-------|-11-8------|------------|
D|-----|--------|------9-11-|-9-11---11-|-9-----|------9-11-|-9-11-------|
A|-----|--------|-----------|-----------|-------|-----------|------------|
D|-----|--------|-----------|-----------|-------|-----------|------------|

  ``````````````````````````
E|-----------|-----------|--------|
B|-----------|-----------|--------|
G|-11-8------|------8----|---8-9~-|
D|------9-11-|-9-11---11-|-9---9~-|
A|-----------|-----------|--------|
D|-----------|-----------|--------|

Verse 1
E|---------|---------|---------|---------|---------|---------|---------|
B|---------|---------|---------|---------|---------|---------|---------|
G|---------|---------|---------|---------|---------|---------|---------|
D|---------|---------|---------|---------|---------|---------|---------|
A|-----2-2-|---------|-----2-2-|---------|-----2-2-|---------|-----2-2-|
D|-4-4-----|-4-4-2-2-|-4-4-----|-4-4-2-2-|-4-4-----|-4-4-2-2-|-4-4-----|

E|---------|
B|---------|
G|---------|
D|---------|
A|---------|
D|-4-4-2-2-|

Pre-Chorus 1
  ******************************************************************
E|----------|----------|----------|----------|----------|-----------|
B|----------|----------|----------|----------|----------|-----------|
G|----------|----------|----------|-44444444-|----------|-----------|
D|-22222222-|-44444444-|-66666666-|-44444444-|-22222222-|-444444444-|
A|-22222222-|-44444444-|-66666666-|-22222222-|-22222222-|-444444444-|
D|-22222222-|-44444444-|-66666666-|----------|-22222222-|-444444444-|

  *********************
E|----------|----------|---------|---------|---------|---------|----------|
B|----------|----------|---------|---------|---------|---------|----------|
G|----------|-44444444-|-2-2-2-2-|-4-4-4-4-|-6-6-6-6-|-1-1-1-1-|-22222222-|
D|-66666666-|-44444444-|-2-2-2-2-|-4-4-4-4-|-6-6-6-6-|-1-1-1-1-|-22222222-|
A|-66666666-|-22222222-|-2-2-2-2-|-4-4-4-4-|-6-6-6-6-|-1-1-1-1-|-22222222-|

Chorus 1           ***************************************************
E|------|---------|------|----------|----------|-----------|----------|
B|------|---------|------|----------|----------|-----------|----------|
G|------|---------|------|----------|----------|-----------|----------|
D|-2-22-|-4-4-4-4-|-1-11-|-66666666-|-22222222-|-444444444-|-11111111-|
A|-2-22-|-4-4-4-4-|-1-11-|-66666666-|-22222222-|-444444444-|-11111111-|
D|-2-22-|-4-4-4-4-|-1-11-|-66666666-|-22222222-|-444444444-|-11111111-|
              (1's--not 11's.)

  ********************************************************************
E|------|------|----------|----------|----------|----------|----------|
B|------|------|----------|----------|----------|----------|----------|
G|------|------|----------|----------|-44444444-|----------|----------|
D|-6666-|-4444-|-22222222-|-44444444-|-44444444-|-22222222-|-22222222-|
A|-6666-|-4444-|-22222222-|-44444444-|-22222222-|-22222222-|-22222222-|
D|-6666-|-4444-|-22222222-|-44444444-|----------|-22222222-|-22222222-|

  *********************
E|----------|----------|----------|
B|----------|----------|----------|
G|-44444444-|----------|----------|
D|-44444444-|-22222222-|-44444444-|
A|-22222222-|-22222222-|-44444444-|
D|----------|-22222222-|-44444444-|

Verse 2
E|---------|---------|---------|---------|---------|---------|---------|
B|---------|---------|---------|---------|---------|---------|---------|
G|---------|---------|---------|---------|---------|---------|---------|
D|---------|---------|---------|---------|---------|---------|---------|
A|-----2-2-|---------|-----2-2-|---------|-----2-2-|---------|-----2-2-|
D|-4-4-----|-4-4-2-2-|-4-4-----|-4-4-2-2-|-4-4-----|-4-4-2-2-|-4-4-----|

E|---------|
B|---------|
G|---------|
D|---------|
A|---------|
D|-4-4-2-2-|

Pre-Chorus 2
   # # #              # # #                             # # #
E|-------|----------|-------|-------------------------|-------|---------|
B|-5-5-5-|-77777777-|-9-9-9-|-12-12-12-12-12-12-12-12-|-5-5-5-|-7777777-|
G|-x-x-x-|-xxxxxxxx-|-x-x-x-|-x--x--x--x--x--x--x--x--|-x-x-x-|-xxxxxxx-|
D|-2-2-2-|-44444444-|-6-6-6-|-9--9--9--9--9--9--9--9--|-2-2-2-|-4444444-|
A|-------|----------|-------|-------------------------|-------|---------|
D|-------|----------|-------|-------------------------|-------|---------|

   # # #
E|-------|----------------------|---------|---------|---------|---------|
B|-9-9-9-|-12-12-12-12-12-12-12-|---------|---------|---------|---------|
G|-x-x-x-|-x--x--x--x--x--x--x--|---------|---------|---------|---------|
D|-6-6-6-|-9--9--9--9--9--9--9--|-2-2-2-2-|-4-4-4-4-|-6-6-6-6-|-1-1-1-1-|
A|-------|----------------------|-2-2-2-2-|-4-4-4-4-|-6-6-6-6-|-1-1-1-1-|
D|-------|----------------------|-2-2-2-2-|-4-4-4-4-|-6-6-6-6-|-1-1-1-1-|

E|---------|---------|
B|---------|---------|
G|---------|---------|
D|-2-2-2-2-|-2-2-2-2-|
A|-2-2-2-2-|-2-2-2-2-|
D|-2-2-2-2-|-2-2-2-2-|

Chorus 2           ***************************************************
E|------|---------|------|----------|----------|-----------|----------|
B|------|---------|------|----------|----------|-----------|----------|
G|------|---------|------|----------|----------|-----------|----------|
D|-2-22-|-4-4-4-4-|-1-11-|-66666666-|-22222222-|-444444444-|-11111111-|
A|-2-22-|-4-4-4-4-|-1-11-|-66666666-|-22222222-|-444444444-|-11111111-|
D|-2-22-|-4-4-4-4-|-1-11-|-66666666-|-22222222-|-444444444-|-11111111-|
              (1's--not 11's.)

  ********************************************************************
E|------|------|----------|----------|----------|----------|----------|
B|------|------|----------|----------|-44444444-|----------|----------|
G|------|------|----------|----------|-44444444-|----------|----------|
D|-6666-|-4444-|-22222222-|-44444444-|-22222222-|-22222222-|-22222222-|
A|-6666-|-4444-|-22222222-|-44444444-|----------|-22222222-|-22222222-|
D|-6666-|-4444-|-22222222-|-44444444-|----------|-22222222-|-22222222-|

  ********************************
E|----------|----------|----------|----|---------|
B|----------|----------|----------|----|---------|
G|-44444444-|----------|----------|-4~-|---------|
D|-44444444-|-22222222-|-22222222-|-4~-|-2~-h-4~-|
A|-22222222-|-22222222-|-22222222-|-2~-|-2~-h-4~-|
D|----------|-22222222-|-22222222-|----|-2~-h-4~-|

Bridge
  ****************************************************
  ````````````````````````````````````````````````````````
E|-----------|-----------|-------|-----------|---------11-|
B|-----------|-----------|--11-9-|-----------|------11----|
G|-11-8------|------8----|-------|-11-8------|------------|
D|------9-11-|-9-11---11-|-9-----|------9-11-|-9-11-------|
A|-----------|-----------|-------|-----------|------------|
D|-----------|-----------|-------|-----------|------------|

Pre-Chorus 3
E|---------|---------|---------|---------|-----------------|---------|
B|---------|---------|---------|---------|-----------------|---------|
G|---------|---------|---------|---------|-----------------|---------|
D|-2-2-2-2-|-4-4-4-4-|-6-6-6-6-|-1-1-1-1-|-2-2-2-2-2-2-2-2-|-2~-h-4~-|
A|-2-2-2-2-|-4-4-4-4-|-6-6-6-6-|-1-1-1-1-|-2-2-2-2-2-2-2-2-|-2~-h-4~-|
D|-2-2-2-2-|-4-4-4-4-|-6-6-6-6-|-1-1-1-1-|-2-2-2-2-2-2-2-2-|-2~-h-4~-|

Chorus 3
E|---------|---------|---------|---------|---------|---------|---------|
B|---------|---------|---------|---------|---------|---------|---------|
G|---------|---------|---------|---------|-4-4-4-4-|---------|---------|
D|-1-1-1-1-|-6-6-4-4-|-2-2-2-2-|-4-4-4-4-|-4-4-4-4-|-2-2-2-2-|-2-2-2-2-|
A|-1-1-1-1-|-6-6-4-4-|-2-2-2-2-|-4-4-4-4-|-2-2-2-2-|-2-2-2-2-|-2-2-2-2-|
D|-1-1-1-1-|-6-6-4-4-|-2-2-2-2-|-4-4-4-4-|---------|-2-2-2-2-|-2-2-2-2-|

E|---------|---------|---------|---------|---------|---------|
B|---------|---------|---------|---------|---------|---------|
G|---------|---------|---------|---------|---------|-4-4-4-4-|
D|-4-4-4-4-|-1-1-1-1-|-6-6-4-4-|-2-2-2-2-|-4-4-4-4-|-4-4-4-4-|
A|-4-4-4-4-|-1-1-1-1-|-6-6-4-4-|-2-2-2-2-|-4-4-4-4-|-2-2-2-2-|
D|-4-4-4-4-|-1-1-1-1-|-6-6-4-4-|-2-2-2-2-|-4-4-4-4-|---------|

E|---------|---------|---------|---------|---------|
B|---------|---------|---------|---------|---------|
G|---------|---------|-4-4-4-4-|---------|---------|
D|-2-2-2-2-|-2-2-2-2-|-4-4-4-4-|-2-2-2-2-|-2-2-2-2-|
A|-2-2-2-2-|-2-2-2-2-|-2-2-2-2-|-2-2-2-2-|-2-2-2-2-|
D|-2-2-2-2-|-2-2-2-2-|---------|-2-2-2-2-|-2-2-2-2-|

Outro
E|----|---------|
B|----|---------|
G|-4~-|---------|
D|-4~-|-2~-h-4~-|
A|-2~-|-2~-h-4~-|
D|----|-2~-h-4~-|

Order of Playing:
Intro
Verse 1
Pre-Chorus 1
Chorus 1
Verse 2
Pre-Chorus 2
Chorus 2
Bridge
Pre-Chorus 3
Chorus 3
Outro

That's it; it's a super-fun song to play. Happy Valentine's Day! :)
God bless! Please comment/rate!

Romans 10:13
Tap to rate this tab
 
# A B C D E F G H I J K L M N O P Q R S T U V W X Y Z