Guitaretab - guitar tabs
Song name
# A B C D E F G H I J K L M N O P Q R S T U V W X Y Z

Relient K - Jefferson Aero Plane tab

intro: guitar 1
e--------------------------------------7-8-107--7-8-107--7-8-107-87----87->\
B-------------------------------------8-8-8--8-8-8-8--8-8-8-8--8---8-10--->|
G------------------------------------------------------------------------->|
D------------------------------------------------------------------------->|
A------------------------------------------------------------------------->|
D------------------------------------------------------------------------->|
|                                                                          |
|intro: guitar 2                                                           |
e------------------------------------------------------------------------->|
B------------------------------------------------------------------------->|
G-44444444-44444444-55555555-55555555-44444444-44444444-55555555-55555555->|
D-55555555-33333333-22222222-11111111-55555555-33333333-22222222-11111111->|
A-55555555----------------------------55555555---------------------------->|
D-55555555----------------------------55555555---------------------------->/
  ******   ******   ******   ******   ******   ******   ******   ******

verse 1: guitar 2
e------------------------------------------------------------------------->
B------------------------------------------------------------------------->
G-44444444-44444444-55555555-55555555-44444444-44444444-55555555-55555555->
D-55555555-33333333-22222222-11111111-55555555-33333333-22222222-11111111->
A-55555555----------------------------55555555---------------------------->
D-55555555----------------------------55555555---------------------------->
  ******   ******   ******   ******   ******   ******   ******   *******
If it hurts kiss it better You wear skirts I write nice letters Never said
nothing with flowers Though we always talked for hours  And it seems to get
much colder when you cry on your own shoulder  And we know the show must go
on Guess I know I guess I'll throw on

chorus: guitar 1
/e--------------------------------------------------------------------->\
|B-------1----------------1-01/3\1-0-------1----------------1-01/3\1-0->|
|G-22220-2-02/4\2-0-22220-2----------22220-2-02/4\2-0-22220-2---------->|
|D--------------------------------------------------------------------->|
|A--------------------------------------------------------------------->|
|D--------------------------------------------------------------------->|
|                                                                       |
|chorus: guitar 2                                                       |
|e--------------------------------------------------------------------->|
|B--------------------------------------------------------------------->|
|G-555555555555555/7-----------------555555555555555/7----------------->|
|D-555555555555555/75555555555555555-555555555555555/75555555555555555->|
|A-333333333333333/55555555555555555-333333333333333/55555555555555555->|
\D------------------5555555555555555------------------5555555555555555->/
Some Jefferson airplane I'm trapped and I am enclosed But I won't complain
I値l open all the windows Jefferson airplane I'm trapped and I am enclosed
But I won't complain I値l open all the windows

chorus: guitar 1
/e----------------------------->\
|B-3333-3-1111-1-11333333-1~--->|
|G------------------------2~--->|
|D----------------------------->|
|A----------------------------->|
|D----------------------------->|
|                               |
|chorus: guitar 2               |
|e----------------------------->|
|B----------------------------->|
|G-7777-7-5555-5-55777777-5~--->|
|D-7777-7-5555-5-55777777-5~--->|
|A-5555-5-3333-3-33555555-3~--->|
\D----------------------------->/
Cause when it's colder I feel much better when I cry on my own shoulder
Just throw on a sweater and go

post-chorus 1: guitar 2
e--------------------------------------------------------------------->
B--------------------------------------------------------------------->
G-------------------------2-2-2-2-------------------------2-2-2-2----->
D-5-5-5-5-5-5-5-5-2-2-2-2-0-0-0-0-5-5-5-5-5-5-5-5-2-2-2-2-0-0-0-0-5~-->
A-3-3-3-3-2-2-2-2-0-0-0-0-----2-2-3-3-3-3-2-2-2-2-0-0-0-0-----2-2-5~-->
D-------------5-5-----------------------------5-5-----------------5~-->
And I'll go to undergo a change of heart, a change of clothes And when I知
home I think I値l go eat cereal and stare out the window

fill: guitar 1
e--7-8-107--7-8-107--7-8-107-87-----87-7-8-107--7-8-107--7-8-107-87-----87->
B-8-8-8--8-8-8-8--8-8-8-8--8-----810--8-8-8--8-8-8-8--8-8-8-8--8-----810--->
G------------------------------78----------------------------------78------>
D-------------------------------------------------------------------------->
A-------------------------------------------------------------------------->
D-------------------------------------------------------------------------->
|                                                                          |
|fill: guitar 2                                                            |
e-------------------------------------------------------------------------->
B-------------------------------------------------------------------------->
G---------44444444-55555555-55555555-44444444-44444444-55555555-55555555--->
D-(5~)----33333333-22222222-11111111-55555555-33333333-22222222-11111111--->
A-(5~)-------------------------------55555555------------------------------>
D-(5~)-------------------------------55555555------------------------------>
           ******   ******   ******  ******   ******   ******   ******

verse 2: guitar 2
e------------------------------------------------------------------------->
B------------------------------------------------------------------------->
G-44444444-44444444-55555555-55555555-44444444-44444444-55555555-55555555->
D-55555555-33333333-22222222-11111111-55555555-33333333-22222222-11111111->
A-55555555----------------------------55555555---------------------------->
D-55555555----------------------------55555555---------------------------->
  ******   ******   ******   ******   ******   ******   ******   *******
I'll make the calls you cover your ears Niagara Falls still flows on New
Year's I will save your plunging neckline Kiss your face, you try to deck
mine If I behave it's gonna cost him Skip the rave in downtown Boston And
we know the show must go on Guess I know I guess I'll throw on

---REPEAT CHORUS

post-chorus 2: guitar 2
e------------------------------------------------------------------>
B------------------------------------------------------------------>
G-------------------------2-2-2-2-------------------------2-2-2-2-->
D-5-5-5-5-5-5-5-5-2-2-2-2-0-0-0-0-5-5-5-5-5-5-5-5-2-2-2-2-0-0-0-0-->
A-3-3-3-3-2-2-2-2-0-0-0-0-----2-2-3-3-3-3-2-2-2-2-0-0-0-0-----2-2-->
D-------------5-5-----------------------------5-5------------------>
And I'll go to undergo a surgery to purge me of this lonely mood And my
ego, the status quo, provides me with a decent attitude
[ Tab from: http://www.guitaretab.com/r/relient-k/51195.html ]
post-chorus 2: guitar 2
e-------------------------------------------------------------------->
B-------------------------------------------------------------------->
G-------------------------2-2-2-2-------------------------2-2-2-2---->
D-5-5-5-5-5-5-5-5-2-2-2-2-0-0-0-0-5-5-5-5-5-5-5-5-2-2-2-2-0-0-0-0-5~->
A-3-3-3-3-2-2-2-2-0-0-0-0-----2-2-3-3-3-3-2-2-2-2-0-0-0-0-----2-2-5~->
D-------------5-5-----------------------------5-5-----------------5~->
And I値l go to undergo a change of heart, a change of clothes And when I知
home, I think I値l go eat cereal and stare out the window

bridge: guitar 3 (r= 10th fret)
e-------------------------------------------------------------------------->
B-------------------------------------------------------------------------->
G-------------------------------------------------------------------------->
D-999999999999999999999999\55555555/999999999999999999999999\5555555502/4~->
A-rrrrrrrr6666666688888888\33333333/rrrrrrrr6666666688888888\33333333---5~->
D-------------------------------------------------------------------------->
Cause you confused me more than anyone An adjustment has begun To let me
feel the desperate need to leave what we undid undone And maybe you could
sympathize With the bags under my eyes And we'll see the signs are saying
that we have used up all our (tries) Try to be a better

bridge: guitar 3
e------------------------------------->
B------------------------------------->
G----0-0-0-0---0~----0~----0~--00000-->
D---4-4-4-4-4--4~----4~----4~-------4->
A--5----------5-----5-----5----------->
D-5----------7-----7-----5------------>
person To be a better friend To be a better son

bridge: guitar 3
e------------------------------------->
B------------------------------------->
G---0~-----0~-----0~------------------>
D---4~-----4~-----4~---7~------------->
A--5------5------5-----5~------------->
D-0------5------0------5~------------->
He tries to be a better someone That understands the difference And that he
cant show all the people all the things that really mean as much as could

bridge: guitar 1
/e-------------------------------------------------------->\
|B-------------------------------------------------------->|
|G-------------------------------------------------------->|
|D---------------542-4-2---------------542-4-2------------>|
|A-------------------------------------------------------->|
|D-------------------------------------------------------->|
|                                                          |
|bridge: guitar 2                                          |
|e-------------------------------------------------------->|
|B-------------------------------------------------------->|
|G-------------------------------------------------------->|
|D-5555555555-7777777777-5555555555-7777777777------------>|
|A-5555555555-7777777777-5555555555-7777777777------------>|
\D-5555555555-7777777777-5555555555-7777777777-5555555555->/
   ********** ********** ********** ********** **********
(feel) Feels like I don稚 remember Ever being this tired (before) Before
now my eyes were closed to all of the beauty of this world

fill 2: guitar 1
/e---------------------------------------------------7-8-r7~->\
|B--------------------------------------------------------8~->|
|G-444555552224444444455555--------44455555------------------>|
|D-------------------------44455555--------44400000---------->|
|A----------------------------------------------------------->|
|D----------------------------------------------------------->|
|                                                             |
|fill 2: guitar 2                                             |
|e----------------------------------------------------------->|
|B----------------------------------------------------------->|
|G-44455555--------44455555--------44455555--------44455555/->|
|D-55555555555555555555555555555555555555555555555555555555/->|
|A-22233333555555552223333355555555222333335555555522233333/->|
\D---------55555555--------55555555--------55555555---------->/
           ********
fill 2: guitar 2
e-------------------------------->
B-------------------------------->
G-4-4-4444-4-4-4444-5-5-5555-5~-->
D-5-5-5555-3-3-3333-2-2-2222-1~-->
A-------------------------------->
D-------------------------------->

---REPEAT CHORUS

post-chorus 3: guitar 2
e------------------------------------------------------------------>
B------------------------------------------------------------------>
G-------------------------2-2-2-2-------------------------2-2-2-2-->
D-5-5-5-5-5-5-5-5-2-2-2-2-0-0-0-0-5-5-5-5-5-5-5-5-2-2-2-2-0-0-0-0-->
A-3-3-3-3-2-2-2-2-0-0-0-0-----2-2-3-3-3-3-2-2-2-2-0-0-0-0-----2-2-->
D-------------5-5-----------------------------5-5------------------>
And I'll go to undergo a surgery to purge me of this lonely mood And my
ego, the status quo, provides me with a decent attitude

post-chorus 3: guitar 2
e------------------------------------------------------------------>
B------------------------------------------------------------------>
G-------------------------2-2-2-2-------------------------2-2-2-2-->
D-5-5-5-5-5-5-5-5-2-2-2-2-0-0-0-0-5-5-5-5-5-5-5-5-2-2-2-2-0-0-0-0-->
A-3-3-3-3-2-2-2-2-0-0-0-0-----2-2-3-3-3-3-2-2-2-2-0-0-0-0-----2-2-->
D-------------5-5-----------------------------5-5------------------>
And I値l go to undergo a change of heart, a change of clothes And I値l go,
oh yes I'll go and hope the new me shows so everybody

outro: guitar 1
e--------------------------------------------------------------------->
B--------------------------------------------------------------------->
G-------4-----4-5--4-4-2-0---4-4-4--2---4-5-0-2-5-2-0-2--------------->
D-5-5-55-5-2-5---5--5-----2-5------4-2-5---4------------5~------------>
A-------------------------------------------------------5~------------>
D-------------------------------------------------------5~------------> 
knows That I致e found myself able to fly away with out magic feathers or
Jefferson aero planes I've got with me all that I need

============================================================================

I don稚 know what this is, but it starts at 7:19 in the song, and it goes
something like this: (you HAVE to add this in, it's the best part of the
                      track :P)

pepperoni!; and it was all.. just a dream; baby, rap sing; whoa!; I致e been
confused and reckless I keep getting restless; eatin 20 pounds of pascetti
(spaghetti) for breakfast; still showing up on your tempest dress list; I
told you my name is M.C. Defenseless; duct tape wrapped around my feet;
held hostage before the big track meet; 14 feet from 18th Street; I know
for a fact that you think I知 neat; yo, you stick around like a fly on the
wall; with surround sound you found that you hear it all; when it all comes
through I heard you say 都o dude, (???); (whoa) and all the king痴 horses
and all the king痴 men; took all the king痴 credit and they started to
spend; it all on the worthless tragedy when (you池e moving with your auntie
and your uncle in bel-air); ladies and gentlemen, the worst free-style
rapper.. ever!; uh oh, umm.. uh, give-give me a second, uh.. shoot! umm uh,
right, here we go; if apples are green and carrots are orange and then they
go and then you go-what-nothin-what rhyme痴 when orange?;  oh, geez, I
really am bad.. um, just gimme-gimme a second-; nah man, you池e DONE!;
who痴 that wearin those silly shoes?; we are wearin those silly shoes!
(ha); well I really hate those silly shoes!; well we really like our silly
shoes! (oh, oh!); please stop wearin those silly shoes!!; we wont stop
wearin our silly shoes! (they池e just shoes man!) (oh!); well I致e learned
to respect your silly shoes; we have respect for you so that we wont loose!
(oh oh); can I.. try on a pair of your silly shoes?; man, quit talkin about
those silly shoes!; you say I知 boring but I say hardly; (something about a
party.. I dunno) pepperoni!; and it was all.. just a dream; forever;
snakes..
Related for Jefferson Aero Plane tab