Song name
# A B C D E F G H I J K L M N O P Q R S T U V W X Y Z

Relient K - Charles In Charge tab

Help us improve GuitareTab! Take a short survey!
Standard Tuning
x palm mute

|---------------------------------------------------------|
|---------------------------------------------------------|
|---------------------------------------------------------|
|----10---10---12--8-x-10-x-8--7-x-8-x-7--10-x-10-x-10-8--|
|--8----8----8--------------------------------------------|
|---------------------------------------------------------|

|-------------------------------------------------------|
|-------------------------------------------------------|
|-------------------------------------------------------|
|----10---10---12--8-x-10-x-8--7-x-8-x-7--14-x-14-x-14--|
|--8----8----8------------------------------------------|
|-------------------------------------------------------|

|---------------------------------------------------------|
|---------------------------------------------------------|
|---------------------------------------------------------|
|----10---10---12--8-x-10-x-8--7-x-8-x-7--10-x-10-x-10-8--|
|--8----8----8--------------------------------------------|
|---------------------------------------------------------|

|---------------------------------------------------------|
|---------------------------------------------------------|
|---------------------------------------------------------|
|----10---10---12--8-x-10-x-8--7-x-8-x-7------------------|
|--8----8----8--------------------------------------------|
|---------------------------------------------------------|


then just continue on with chords... it's not hard.. i'm only 13 and i learned it and 
it in 2 minutes.. have fun
Related for Charles In Charge tab