Song name
# A B C D E F G H I J K L M N O P Q R S T U V W X Y Z

Relient K - One Im Waiting For tab

The One I'm Waiting For - Relient K

Tabbed By Makenzie (smogle90@hotmail.com)
Please email with any corrections :]


Intro

e|----------------------------------------------------------------------|
B|--9------9------9------9------9------9------6------6------6-----------|
G|----6------6-------------6------6-------------6------6----------------|
D|------6------6-------------6------6-------------6------6--------------|
A|----------------------------------------------------------------------|
E|----------------------------------------------------------------------|

                         
e|----------------------------------------------------------------------|
B|--6------6------6------7------7------7------7------7------7-----------|
G|----6------6-------------6------6-------------6------6----------------|
D|------6------6-------------6------6-------------6------6--------------|
A|----------------------------------------------------------------------|
E|----------------------------------------------------------------------|


e|---------------------------------------|
B|--4------4------4----------------------|
G|----6------6---------------------------|
D|------6------6---------6--6--6--6-/-4--|   x3
A|-----------------------6--6--6--6-/-4--|
E|-----------------------4--4--4--4-/-2--|



"The way that girl can break a heart..."

e|----------------------------------------------------------------------|
B|--------6------------6--5--------6-----------6--5---------------------|
G|-----------6------------------------6---------------------------------|
D|--4--4---------4--4--------4--4--------4--4---------------------------|
A|--4--4---------4--4--------4--4--------4--4---------------------------|
E|--2--2---------2--2--------2--2--------2--2---------------------------|


e|----------------------------------------------------------------------|
B|--------6------------6--5--------6------------------------------------|
G|--6--6-----6---6--6--------6--6-----6---------------------------------|
D|--6--6---------6--6--------6--6---------6--6--6--6--------------------|
A|--4--4---------4--4--------4--4---------6--6--6--6--------------------|
E|----------------------------------------4--4--4--4--------------------|


e|--------4------------4--6--------4-----------4--6---------------------|
B|--------6--6---------6--5--------6--6--------6--5---------------------|
G|-----------6------------------------6---------------------------------|
D|--4--4---------4--4--------4--4--------4--4---------------------------|
A|--4--4---------4--4--------4--4--------4--4---------------------------|
E|--2--2---------2--2--------2--2--------2--2---------------------------|

                                                         F#      G#
e|--------4------------4--6--------4------------------------------------|
B|--------6--6---------6--5--------6--6---------------------------------|
G|--6--6-----6---6--6--------6--6-----6---------------------------------|
D|--6--6---------6--6--------6--6---------6--6--6--6-----4-------6------|
A|--4--4---------4--4--------4--4---------6--6--6--6-----4-------6------|
E|----------------------------------------4--4--4--4-----2-------4------|



"So fall back on all of your premonitions..."

       A#/C#        G#/C#        F#/C#        D#
e|--------------------------------------------------|
B|--6--6--6--6----6--6--6--6----6--6--6--6----------|
G|--6--6--6--6----6--6--6--6----6--6--6--6----8-----| x2
D|--6--6--6--6----6--6--6--6----6--6--6--6----8-----|
A|------------------------------9--9--9--9----6-----|
E|--6--6--6--6----4--4--4--4------------------------|


After "Live your life for those that you love"

e|-------------------------------|
B|-------------------------------|
G|-------------------------------|
D|-----------------------3-------| x4
A|----1--4-----6--4---------4----|
E|--2--------4--------6----------|


"The way that girl can turn a head, she is such a thread dont ever forget
e|----------------------------------------------------------------------|
B|----------------------------------------------------------------------|
G|------------------------------------------------6-6-6-6-6-6-6-6-6-6-6-|
D|--4-4-4-4-4-4-4-4-4-4-4-4-4-4-4-4-4-4-4-4-4-4---6-6-6-6-6-6-6-6-6-6-6-|
A|--4-4-4-4-4-4-4-4-4-4-4-4-4-4-4-4-4-4-4-4-4-4---4-4-4-4-4-4-4-4-4-4-4-|
E|--2-2-2-2-2-2-2-2-2-2-2-2-2-2-2-2-2-2-2-2-2-2-------------------------|


    she knows it"
e|----------------------------------------------------------------------|
B|----------------------------------------------------------------------|
G|----------------------------------------------------------------------|
D|--6-6-6-6-/-4---------------------------------------------------------|
A|--6-6-6-6-/-4---------------------------------------------------------|
E|--4-4-4-4-/-2---------------------------------------------------------|


      "And she's got it all, (whoa) all figured   out, she won't let..."
e|----------------------------------------------------------------------|
B|----------------------------------------------------------------------|
G|------------------------------------------------6-6-6-6-6-6-6-6-6-6-6-|
D|--4-4-4-4-4-4-4-4-4-4-4-4-4-4-4-4-4-4-4-4-4-4---6-6-6-6-6-6-6-6-6-6-6-|
A|--4-4-4-4-4-4-4-4-4-4-4-4-4-4-4-4-4-4-4-4-4-4---4-4-4-4-4-4-4-4-4-4-4-|
E|--2-2-2-2-2-2-2-2-2-2-2-2-2-2-2-2-2-2-2-2-2-2-------------------------|


  she knows it"
e|----------------------------------------------------------------------|
B|-----------------6-------6------------6------6------------------------|
G|----------------------------------------------------------------------|
D|--6-6-6-6---4-4-----4-4-----4-4--4-4----4-4-----4-4------6------------|
A|--6-6-6-6---4-4-----4-4-----4-4--4-4----4-4-----4-4------6------------|
E|--4-4-4-4---2-2-----2-2-----2-2--2-2----2-2-----2-2------4------------|



 C#                F#
I'm still waiting for you to be the one I'm waiting for

 A#m               F#   
I'm still waiting for you to be the one I'm waiting for




e|----------------------------------------------------------------------|
B|--9------9------9------9------9------9------6------6------6-----------|
G|----6------6-------------6------6-------------6------6----------------|
D|------6------6-------------6------6-------------6------6--------------|
A|----------------------------------------------------------------------|
E|----------------------------------------------------------------------|

                         
e|----------------------------------------------------------------------|
B|--6------6------6-----7------7------7-----7------7-----7---6--7-------|
G|----6------6------------6------6------------6------6-------------8--6-|
D|------6------6------------6------6------------6------6----------------|
A|----------------------------------------------------------------------|
E|----------------------------------------------------------------------|



"So fall back on all of your premonitions..."

       A#/C#        G#/C#        F#/C#        D#
e|----------------------------------------------------|
B|--6--6--6--6----6--6--6--6----6--6--6--6------------|
G|--6--6--6--6----6--6--6--6----6--6--6--6----8-------|
D|--6--6--6--6----6--6--6--6----6--6--6--6----8-------| 
A|------------------------------9--9--9--9----6-------|
E|--6--6--6--6----4--4--4--4--------------------------|


       A#/C#        G#/C#        F#/C#        F#   G#
e|--------------------------------------------2----4--|
B|--6--6--6--6----6--6--6--6----6--6--6--6----2----4--|
G|--6--6--6--6----6--6--6--6----6--6--6--6----3----5--|
D|--6--6--6--6----6--6--6--6----6--6--6--6----4----6--| 
A|------------------------------9--9--9--9----4----6--|
E|--6--6--6--6----4--4--4--4------------------2----4--|



   C#                F#
  I'm still waiting for you to be the one I'm waiting for

   A#m               F#   
  I'm still waiting for you to be the one I'm waiting for

   C#                F#
  I'm still waiting for you to be the one I'm waiting for

   A#m               F#   
  I'm still waiting for you to be the one I'm waiting for
Tap to rate this tab
# A B C D E F G H I J K L M N O P Q R S T U V W X Y Z