Guitaretab - guitar tabs
Song name
# A B C D E F G H I J K L M N O P Q R S T U V W X Y Z

Relient K - I So Hate Consequences tab

----------------------------------------------------------------------
		Relient K - I So Hate Consequences
----------------------------------------------------------------------

Tabbed by: Cameron Ross

Tuning: Drop D (song is actually played in Drop Db)

*: Palm mute 
~: Let ring
x: Slide

Notes: I haven't tabbed every strum, just the chord changes and general
feel. If you want to know the exact rhythm and amount of beats for each
chord, listen to the song ;-)

Intro:
e|---------------------------------------------------------------|
B|---------------------------------------------------------------|
G|-14-----------11--9---7---6------------------------------------|
D|-x--alot------x---x---x---x------------------------------------|x2
A|-12-----------9---7---5---4------------------------------------|
D|---------------------------------------------------------------|

And I'm good good good to go, 
and I'm good good good to go, 
got to get away, 
get away from all of my mistakes


Intro Cont:
e|---------------------------------------------------------------|
B|---------------------------------------------------------------|
G|-77-6-7-6------------------------------------------------------|
D|-xx-x-x-x----...and back and forth...--------------------------|
A|-55-4-5-4------------------------------------------------------|
D|---------------------------------------------------------------|


Verse Pt1:
e|---------------------------------------------------------------|
B|---------------------------------------------------------------|
G|---------------------------------------------------------------|
D|-9-99--0-00--5-55--0-00--7-77----------------------------------|
A|-9-99--0-00--5-55--0-00--7-77----------------------------------|
D|-9-99--0-00--5-55--0-00--7-77----------------------------------|
     **    **    **    **    **

So here I sit, looking at the traffic lights
The red extinguishes the hope that the green ignites
I wanna run away, I wanna quit my life
But all of my mistakes keep me awake at night

Verse Pt2:
e|---------------------------------------------------------------|
B|---------------------------------------------------------------|
G|---------------------------------------------------------------|
D|-9--0--5--0--7-------------------------------------------------|
A|-9--0--5--0--7-------------------------------------------------|
D|-9--0--5--0--7-------------------------------------------------|

And after all of my alibis desert me
I just wanna get by, I don't want nothing to hurt me
I had no idea where my head was at
But if my heart says I'm sorry, can I leave it at that?

Prechorus:
e|---------------------------------------------------------------|
B|---------------------------------------------------------------|
G|---------------------------------------------------------------|
D|-9--7--0~------------------------------------------------------|
A|-9--7--0~------------------------------------------------------|
D|-9--7--0~-------------------------------.-----------------------|
      *

Because I just want for all of this to end

Chorus:
e|---------------------------------------------------------------|
B|---------------------------------------------------------------|
G|---------------------------------------------------------------|
D|-5--12--9--7--------5--7---------------------------------------|
A|-5--12--9--7--x3----5--7---------------------------------------|
D|-5--12--9--7--------5--7---------------------------------------|
                      *  *

And I so hate consequences
Coz running from you's what my best defence is
Consequences
Oh God, don't make me face up to this

And I so hate consequences
And running from you's what my best defence is
Cause I know that I let you down
And I dont wanna deal with that


Intro again, x1
[ Tab from: http://www.guitaretab.com/r/relient-k/53366.html ]
And I'm good good good to go, 
and I'm good good good to go, 
got to get away, 
get away from all of my mistakes


Intro cont. again


Verse Pt2 again

It just now hit me this is more than just a set back
And when you spelled it out, well, I guess I didnít get that
And every trace of momentum is gone
And this isnít turning out the way I want


Verse Pt2 slower:
e|-----2~---------2~--------2~-------2~---0~------2~----0~------|
B|---3----------3---------3--------3----3--------3~----3~-------|
G|-4----------2---------0--------2-----6--------4~----6~--------|
D|----------------------------------------------------------0~--| 
A|----------------------------------------------------------0~--|
D|----------------------------------------------------------0~--|

And after all of my alibis desert me
I just want to get by
I donít want nothing to hurt me
I had no idea where my head was at
But if my heart says Iím sorry can we leave it at that
Because I just want for all of this to end


Chorus:
e|---------------------------------------------------------------|
B|---------------------------------------------------------------|
G|---------------------------------------------------------------|
D|-5~--12~--9~--7~--5--12--9--7--5--12--9--7------5--7-----------|
A|-5~--12~--9~--7~--5--12--9--7--5--12--9--7------5--7-----------|
D|-5~--12~--9~--7~--5--12--9--7--5--12--9--7------5--7-----------|
                           *  *                   *  *

And I so hate consequences
And running from you is what my best defense is
Consequences
Oh God, donít make me face up to this
And I so hate consequences
And running from you is what my best defense is
Cause I know that I let you down
And I donít want to deal with that


Bridge:
e|---------------------------------------------------------------|
B|---------------------------------------------------------------|
G|---------------------------------------------------------------|
D|-9~--5~--0~--7~---(555--777--999)------5~-0~-5~-555-0~---------|
A|-9~--5~--0~--7~---(555--777--999)-x2---5~-0~-5~-555-0~---------|
D|-9~--5~--0~--7~---(555--777--999)------5~-0~-5~-555-0~---------|
                                             ***

And I spent all last night
Tearing down
Every stoplight
And stop sign in this town
Now I think there might
Be no way to stop me now
I'll get away despite
The fact Iím so weighed down

All of my escapes have been exhausted
I thought I had a way but then I lost it
And my resistance was once much stronger
And I know I can't go on like this much longer


Piano:

When I got tired of running from you
I stopped right there to catch my breath
There your words they caught my ears
You said, ďI miss you son. Come homeĒ
And my sins, they watched me leave
And in my heart I so believed
The love you felt for me was mine
The love Iíd wished for all this time


Bridge:
e|---------------------------------------------------------------|
B|---------------------------------------------------------------|
G|---------------------------------------------------------------|
D|-2--9--7--5~---------------------------------------------------|
A|-2--9--7--5~---------------------------------------------------|
D|-2--9--7--5~---------------------------------------------------|
   *  *  *

And when the doors were closed
I heard no I told soís
I said the words I knew you knew
Oh God, Oh God I needed you
God all this time I needed you, I needed you


Piano:

And I so hate consequences
And running from you is what my best defense is
I hate these consequences
Cause I know that I let you down
And I donít want to deal with that

End:
e|---------------------------------------------------------------|
B|---------------------------------------------------------------|
G|---------------------------------------------------------------|
D|-555--777--999---5~--0~--5~-555--0~----------------------------|
A|-555--777--999---5~--0~--5~-555--0~----------------------------|
D|-555--777--999---5~--0~--5~-555--0~----------------------------|
                              ***
Related for I So Hate Consequences tab