Song name
# A B C D E F G H I J K L M N O P Q R S T U V W X Y Z

Relient K - I Am Understood tab

Help us improve GuitareTab! Take a short survey!
verse 1: acoustic
e-2-22-2222-22-222-2-------------2-22-2222-22-222-2------------->
B-3-33-3333-33-333-3-------------3-33-3333-33-333-3------------->
G-4-44-4444-44-444-4/7-777-2-222-4-44-4444-44-444-4/7-777-2-222-> play 2x
D-4-44-4444-44-444-4/7-777-2-222-4-44-4444-44-444-4/7-777-2-222->(let it
A-2-22-2222-22-222-2/5-555-0-000-2-22-2222-22-222-2/5-555-0-000->  ring 2nd)
E--------------------------------------------------------------->
Sometimes it's embarrassing to talk to you To hold a conversation with the
only one who sees right through This version of myself I try to hide behind
I'll bury my face because my disgrace will leave me terrified

verse 1: guitar 2
e-------------------------------------------->
B-------------------------------------------->
G-444444444------------7777777777-2222222222-> play 4 times
D-444444444-5555555555-7777777777-2222222222-> (let it ring on 4th)
A-222222222-5555555555-5555555555-0000000000->
D-----------5555555555----------------------->
And sometimes I'm so thankful for your loyalty Your love regardless of The
mistakes I make will spoil me My confidence is, in a sense, a gift you've
given me And I'm satisfied to realize you're all I'll ever need

chorus: guitar 1
/e--------------------------------------------------->\
|B-------8887770000008887773333333333---------------->|
|G-777777------------------4444444444---------------->|
|D--------------------------------------------------->|
|A--------------------------------------------------->|
|D--------------------------------------------------->|
|                                                     |
|chorus: guitar 2                                     |
|e--------------------------------------------------->|
|B--------------------------------------------------->|
|G-777777777777------------4444444444+++------------->|
|D-7777777777775555555555554444444444+++4--+++7--+++->|
|A-5555555555555555555555552222222222+++5--+++7--+++->|
\D-------------555555555555-------------4--+++7--+++->/
   \_______________repeat this________________/
You looked into my life and never stopped And you're thinking all my
thoughts Are so simple, but so beautiful And you recite my words right back
to me Before I even speak You let me know, I am understood

verse 2: guitar 1
/e----------------------------------------------------------|----------->\
|B----------------------------------------------------------|----------->|
|G----------------------------------------------------------|----------->|
|D-0000++++0000++-------------------------------------------|----------->|
|A----------------------------------------------------------|-12\4-5-7-->|
|D----------------------------------------------------------|----------->|
|                                                                        \
|verse 2: guitar 2                                                        \
|e---------------------------------------------------------->              \
|B---------------------------------------------------------->              |
|G---------------444444444------------7777777777-2222222222-> play 4 times |
|D---------------444444444-5555555555-7777777777-2222222222-> (let it      |
|A---------------222222222-5555555555-5555555555-0000000000->  ring on 4th)|
\D-------------------------5555555555----------------------->______________/
And sometimes I spend my time Just trying to escape I work so hard so
desperately, in an attempt to create space Cause I want distance from the
utmost important thing I know I see your love, then turn my back and beg
for you to go

---REPEAT CHORUS

fill: acoustic
e------------------------------------------>
B------------------------------------------>
G----0----0----0---0----0----0--------0---->
D---4--0-4--0-4------0-4--0-4----0-4---4-0->
A--2--------------2-------------2---------->
D-0--------------0--3----------3----------->

bridge: acoustic
e------------------------------------------------------------------>
B------------------------------------------------------------------>
G----0----0----0---0----0----0--------0------0----0----0----0--0~-->
D---4--0-4--0-4------0-4--0-4----0-4---4-0--4--0-4--0-4--0-4------->
A--2--------------2-------------2----------2------------------2---->
D-0--------------0--3----------3----------0------------------0----->
You're the only one who understands completely You're the only one knows me
yet still loves completely

fill 2: guitar 1
/e------------------------------------------------------------------->\
|B------------------------------------------------------------------->|
|G------------------------------------------------------------------->|
|D-57-5757-54-5454-57-5757-5445454-57-5757-54-5454-57-57575---------->|
|A------------------------------------------------------------------->|
|D------------------------------------------------------------------->|
|    *    *  *    *  *    *  *****   *    *  *    *  *                |
|fill 2: guitar 2                                                     |
|e------------------------------------------------------------------->|
|B----------------------------------------------------------0-0-0000->|
|G-4444444---------7777777-2222222-4444444---------77777777-2-2-2222->|
|D-4444444-5555555-7777777-2222222-4444444-5555555-77777777-2-2-2222->|
|A-2222222-5555555-5555555-0000000-2222222-5555555-55555555-0-0-0000->|
\D---------5555555-------------------------5555555------------------->/
   ******* ******* ******* ******* ******* ******* ********

verse 3: guitar 2
e-------------------------------------------->
B-------------------------------------------->
G-444444444------------7777777777-2222222222-> repeat
D-444444444-5555555555-7777777777-2222222222->
A-222222222-5555555555-5555555555-0000000000->
D-----------5555555555----------------------->
And sometimes the place I'm at is at a loss for words If I think of
something worthy I know that its already yours

verse 3: acoustic
e---------------------->
B---------------------->
G---0~---0~---0~---0~-->
D--4----4----7----4---->
A-5----5----5----5----->
D---------------------->
And through the times I've faded and you've outlined me again

verse 2: guitar 1
/e------------------------------------------->\
|B------------------------------------------->|
|G------------------------------------------->|
|D------------------------------------------->|
|A--------------------------------12\4-5-7--->|
|D------------------------------------------->|
|                                             |
|verse 2: guitar 2                            |
|e------------------------------------------->|
|B------------------------------------------->|
|G-444444444------------7777777777-2~-------->|
|D-444444444-5555555555-7777777777-2~-------->|
|A-222222222-5555555555-5555555555-0~-------->|
\D-----------5555555555---------------------->/
You've just patiently waited, to bring me back and then

---REPEAT CHORUS

fill 3: guitar 2
e------------------------------------------------------------------------>
B-0000+++----------------------------3333+++3333+++---------------------->
G-2222+++-------3333+++7777+++7777+++2222+++3333+++7777+++7777+++2222+++->
D-0000+++5555+++3333+++5555+++7777+++2222+++3333+++5555+++7777+++2222+++->
A-2222+++5555+++1111+++5555+++5555+++0000+++1111+++5555+++5555+++0000+++->
D--------5555+++-------5555+++---------------------5555+++--------------->

bridge 2: guitar 2
e---------------------------------------------------------->
B----------------------33333333333333---------------------->
G-33333337777777777777722222223333333777777777777772222222-> play 3 times
D-33333335555555777777722222223333333555555577777772222222->
A-11111115555555555555500000001111111555555555555550000000->
D--------5555555---------------------5555555--------------->
The noise has broken my defense Let me embrace salvation Your voice has
broken my defense Let me embrace salvation The noise has broken my defense
Let me embrace salvation Your voice has broken my defense Let me embrace
salvation The noise has broken my defense Let me embrace salvation Your
voice has broken my defense Let me embrace salvation

bridge 2: guitar 2
e---------------------------------------->
B---------------------------------------->
G-3333333777777777777777777777~---------->
D-3333333555555577777777777777~---------->
A-1111111555555555555555555555~---------->
D--------5555555------------------------->
The noise has broken my defense Let me embrace salvation Let me embrace Let
me embrace salvation

outro: guitar 1
e------------------->
B-3~-/5--/7~-------->
G-3~-/5--/7~-------->
D------------------->
A------------------->
D------------------->
Related for I Am Understood tab