Song name
# A B C D E F G H I J K L M N O P Q R S T U V W X Y Z

Relient K - Be Rad tab

			  Be Rad - Relient K
-------------------------------------------------------------------------------
Tabbed by:lance Canterbury
Email:

Tuning:standard

e|-----------------------------------------------------------------------------|
B|-----------------------------------------------------------------------------|
G|-----------------------------------------------------------------------------|
D|-----------------------------------------------------------------------------|
A|-2222-----------------2222---------------------------------------------------|
E|--------2222--000------------------------------------------------------------|

e|-----------------------------------------------------------------------------|
B|-----------------------------------------------------------------------------|
G|--444------------------------------------------------------------------------|
D|--444---444--222----444------------------------------------------------------|
A|--222---444--222----444--------x13-------------------------------------------|
E|----------222--000----222----------------------------------------------------|

e|-----------------------------------------------------------------------------|
B|-----------------------------------------------------------------------------|
G|---444------------------777--------------------------------------------------|
D|---444--444--555---777----------x8-------------------------------------------|
A|---222--444--555---555-------------------------------------------------------|
E|----------222---333----------------------------------------------------------|

e|-----------------------------------------------------------------------------|
B|-----------------------------------------------------------------------------|
G|---xx4---------------------------------------4-------------------------------|
D|---xx2---xx4---xx2--xx4------------------2-----------------------------------|
A|---xx2---xx2---xx2--xx2-------let ring--2------------------------------------|
E|----------xx2---xx0--xx2-----------------------------------------------------|

e|-----------------------------------------------------------------------------|
B|-----------------------------------------------------------------------------|
G|---444------------------777----------4---------------------------------------|
D|---444--444--555---777----x8---2---------------------------------------------|
A|---222--444--555---555----------2------let ring at the end-------------------|
E|----------222---333----------------------------------------------------------|
and thats it for my first tab...enjoy!
B|-----------------------------------------------------------------------------|
G|--444------------------------------------------------------------------------|
D|--444---444--222----444------------------------------------------------------|
A|--222---444--222----444--------x13-------------------------------------------|
E|----------222--000----222----------------------------------------------------|

e|-----------------------------------------------------------------------------|
B|-----------------------------------------------------------------------------|
G|---444------------------777--------------------------------------------------|
D|---444--444--555---777----------x8-------------------------------------------|
A|---222--444--555---555-------------------------------------------------------|
E|----------222---333----------------------------------------------------------|

e|-----------------------------------------------------------------------------|
B|-----------------------------------------------------------------------------|
G|---xx4---------------------------------------4-------------------------------|
D|---xx2---xx4---xx2--xx4------------------2-----------------------------------|
A|---xx2---xx2---xx2--xx2-------let ring--2------------------------------------|
E|----------xx2---xx0--xx2-----------------------------------------------------|

e|-----------------------------------------------------------------------------|
B|-----------------------------------------------------------------------------|
G|---444------------------777----------4---------------------------------------|
D|---444--444--555---777----x8---2---------------------------------------------|
A|---222--444--555---555----------2------let ring at the end-------------------|
E|----------222---333----------------------------------------------------------|
and thats it for my first tab...enjoy!
Tap to rate this tab
# A B C D E F G H I J K L M N O P Q R S T U V W X Y Z