Song name
# A B C D E F G H I J K L M N O P Q R S T U V W X Y Z

Relient K - I Celebrate The Day tab

Help us improve GuitareTab! Take a short survey!
------------------------------------------------------------|
-3-----3-----3-----3-----3-----3-----3-----3-----3-----3----|
----2-----2-----2-----2-----2-----2-----2-----2-----2-----2-|
-------------------------------------------0----------------|
-------------------------2-----------0----------------------|
------------------------------------------------------------|


------------------------------------------------------------|
-3-----3-----3-----3-----3-----3-----3-----3-----3-----3----|
----2-----2-----2-----2-----2-----2-----2-----2-----2-----2-|
-------5-----------4-----------2-----------0----------------|
-------------------------------------------------------2----|
------------------------------------------------------------|
       With this christmas wish is missed...

------------------------------------------------------------|
-3-----3-----3-----3-----3-----3-----3-----3-----3-----3----|
----2-----2-----2-----2-----2-----2-----2-----2-----2-----2-|
-------------------------------------------5-----------4----|
-------0----------------------------------------------------|
-------------------3----------------------------------------|
                          if only i could find..

------------------------------------------------------------|
-3-----3-----3-----3-----3-----3-----3-----3-----3-----2----|
----2-----2-----2-----2-----2-----2-----2-----2-----2-----2-|
-------2-----------0----------------------------------------|
-------------------------------0-----------------------0----|
------------------------------------------------------------|


-----------------------|
-2-----2-----2---------|
----2-----2-----2  x2--|        Its easier if you know the words/lyrics
-----------------------|
-----------------------|                          *Please Rate*
-----------------------|
Related for I Celebrate The Day tab