Guitaretab - guitar tabs
Song name
# A B C D E F G H I J K L M N O P Q R S T U V W X Y Z

Relient K - My Girls Ex-boyfriend tab

Intro:  guitar 1
e-3-30-0---------3-30-0-----003-30-0-------------->
B-----3-0-1-3-11-----3-0-1-3------3-0-1-3-111~~-3->
G------------------------------------------------->
D------------------------------------------------->
A------------------------------------------------->
E------------------------------------------------->

Intro:  guitar 2
e------------------------------------------------->
B------------------------------------------------->
G---------5~~-xxx--------5~~xxx-------5~~--------->
D--3~~----5~~-xxx-3~~----5~~xxx3~~----5~~-333~~-5->
A--3~~----3~~-xxx-3~~----3~~xxx3~~----3~~-333~~-5->
E--1~~------------1~~----------1~~--------111~~-3->

Verse:  guitar 2
e------------------------>
B------------------------>
G------------5xxxx-7xxxx->
D-3xxxx3xxxx-5xxxx-5xxxx->  repeat 3x
A-3xxxx3xxxx-3xxxx------->
Eó1xxxx1xxxx------------->

Chorus: guitar 2
e------------------------------------------>
B------------------------------------------>
G-----555-----555xx-----555-77-22----555~~->
D-333/555-333/555xx-333-555-77-22-33-555~~->
A-333/333-333/333xx-333-333-55-00-33-333~~->
E-111/----111/------111-----------11------->

Repeat verse
[ Tab from: http://www.guitaretab.com/r/relient-k/59741.html ]
Chorus 2: piano and guitar 2

e------------------------------------------>
B------------------------------------------>
G------------------------5xxx-7x-2x----5~~->
D---(piano)---------3xxx-5xxx-7x-2x-3x-5~~->
A-------------------3xxx-3xxx-5x-0x-3x-3~~->
E-------------------1xxx------------1x----->

e---------------------------------------------------------------->
B---------------------------------------------------------------->
G------55xx--------------------5555-22---------5555-222---------->
D-3333-55xx-3333-77-5-xxx-3333-5555-22-55-3333-5555-222-3333/555->
A-3333-33xx-3333-77-5-xxx-3333-3333-00-55-3333-3333-000-3333/555->
E-1111------1111-55-3-xxx-1111---------33-1111----------1111/333->

Repeat first part of intro then:  guitar 2
e------------------------------------------------1~~---->
B------------------------------------------------x------>
G---------------------------------2xxx-----------x------>
D--3~~--2-5~~-2~~-2-5~~-3xxx-5xxx-2xxx-5xxx-3xxx-3~~---->
A--3~~--2-5~~-2~~-2-5~~-3xxx-5xxx-0xxx-5xxx-3xxx-3~~---->
E--1~~--0-3~~-1~~-0-3~~-1xxx-3xxx------3xxx-1xxx-1~~---->

Repeat chorus and the outro is the voices only

Well, that's it and I think it's all correct so thanks and enjoy!
Related for My Girls Ex-boyfriend tab