Guitaretab - guitar tabs
Song name
# A B C D E F G H I J K L M N O P Q R S T U V W X Y Z

Relient K - Apathetic Way To Be tab

Intro: guitar 1
e-------4-4----4-4---4---------4-4----4-4---4~--------->
B-4-46-66-66---6-66-67---4-46-66-66---6-66-67~--------->
G-6-66-66-66---6-66-66---6-66-66-66---6-66-66~--------->
D----------------------------------------6-64~--------->
A------------------------------------------------------>
E------------------------------------------------------>

Verse 1: guitar 2 (*= palm mute)
e----------------------------------------------------------------->
B----------------------------------------------------------------->
G-8886666------------6666------------6666---------8886666--------->
D-8886666-8886666-4446666-6665555-4446666-8886666-8886666-8886666->
A-6664444-8886666-4444444-6666666-4444444-8886666-6664444-8886666->
E---------6664444-222-----4443333-222-----6664444---------6664444->
  ******  ******* ******* ******* ******* ******  ******* *******
Yeah, Iím not angry and no Iím not upset/itís taken me a while, but this is
what Iíve learned/emotional attachment is really not a threat/when Iím
simply not concerned

Verse 1: guitar 2 (*= palm mute)
e---------------------------------------------------------------->
B---------------------------------------------------------------->
G-8886666------------6666------------6666------------------------>
D-8886666-8886666-4446666-6665555-4446666-8886666-44444466666666->
A-6664444-8886666-4444444-6666666-4444444-8886666-44444466666666->
E---------6664444-222-----4443333-222-----6664444-22222244444444->
  ******  ******* ******* ******* ******* ******  **********
The things that I take on I soon shrug off/cause I know no one will ever be
content/with the way things are or with what theyíve got/so Iíve given up
and now Iím just indifferent

Chorus: guitar 1
/e-444444444444444444444444444444444444444444444444444444444444444444->\
|B-------------------------------------------------------------------->|
|G-------------------------------------------------------------------->|
|D-------------------------------------------------------------------->|
|A-------------------------------------------------------------------->|
|E-------------------------------------------------------------------->|
|                                                                      |
|Chorus: guitar 2                                                      |
|e-------------------------------------------------------------------->|
|B-------------------------------------------------------------------->|
|G-----66--------------66--------------66--------------66------------->|
|D-44--66--88--66--44--66--88--66--44--66--88--66--44--66--6666666666->|
|A-44--44--88--66--44--44--88--66--44--44--88--66--44--44--6666666666->|
\E-22------66--44--22------66--44--22------66--44--22------4444444444->/
You all laugh at me like Iím not happy/with anything, anytime, anywhere/and
the half of meís all about apathy/and the other half just doesnít care

Fill: guitar 1
/e-4444444444444444---44444444444444444444---4~--------->\
|B-4446664446666---66677774446664446666---6667~--------->|
|G-6666666666666666666666666666666666666666666~--------->|
|D----------------------------------------6664~--------->|
|A------------------------------------------------------>|
|E------------------------------------------------------>|
|                                                        |
|Fill: guitar 2                                          |
|e------------------------------------------------------>|
|B------------------------------------------------------>|
|G----------6666-------------------6666----------------->|
|D-33334444-6666-6666-444433334444-6666-6666-4~--------->|
|A-33334444-4444-6666-444433334444-4444-6666-4~--------->|
\E-11112222------4444-222211112222------4444-2~--------->/

Verse 2: guitar 2 (*= palm mute)
e----------------------------------------------------------------->
B----------------------------------------------------------------->
G-8886666------------6666------------6666---------8886666--------->
D-8886666-8886666-4446666-6665555-4446666-8886666-8886666-8886666->
A-6664444-8886666-4444444-6666666-4444444-8886666-6664444-8886666->
E---------6664444-222-----4443333-222-----6664444---------6664444->
  ******  ******* ******* ******* ******* ******  ******* *******
I must admit all the words you spoke I hated/cause I donít see just how I
can be motivated/enough to break a swear over a dying race/it seems our
fate is something weíve already embraced
[ Tab from: http://www.guitaretab.com/r/relient-k/62566.html ]
Verse 2: guitar 2 (*= palm mute)
e---------------------------------------------------------------->
B---------------------------------------------------------------->
G-8886666------------6666------------6666------------------------>
D-8886666-8886666-4446666-6665555-4446666-8886666-44444466666666->
A-6664444-8886666-4444444-6666666-4444444-8886666-44444466666666->
E---------6664444-222-----4443333-222-----6664444-22222244444444->
  ******* ******  ******* ******* ******* ******  **********
Yeah, Iím not angry and no Iím not upset/itís taken me a while, but this is
what Iíve learned/emotional attachment is really not a threat/when Iím
simply not concerned

---REPEAT CHORUS

bridge: guitar 2
e------------------------------------------------------------------>
B------------------------------------------------------------------>
G-666666665555555533333333--------666666665555555533333333--------->
D-6666666666666666333333334444444466666666666666663333333344444444->
A-4444444433333333111111114444444444444444333333331111111144444444->
E-------------------------22222222------------------------22222222->
                                  ********************************
Yeah/being apatheticís a pathetic way to be/but I donít care/yeah what
matters to you does not matter to me/cause I donít care

Fill 2: guitar 1
/e--------------------4444------------------------------>\
|B--------------------7777444666444666/9996667~--------->|
|G------------------------------------------------------>|
|D------------------------------------------------------>|
|A------------------------------------------------------>|
|E------------------------------------------------------>|
|                                                        |
|Fill 2: guitar 2                                        |
|e------------------------------------------------------>|
|B------------------------------------------------------>|
|G----------6666-------------------6666----------------->|
|D-33334444-6666-6666-444433334444-6666-6666-4~--------->|
|A-33334444-4444-6666-444433334444-4444-6666-4~--------->|
\E-11112222------4444-222211112222------4444-2~--------->/
   ******** **** **** ****

bridge 2: guitar 2
e-------------------------------------------------------------------------->
B-------------------------------------------------------------------------->
G--------------------66~------66~------666666---666666--------------------->
D-888877776666555544466~---44466~---444666666444666666888888777777666666--->
A-888888886666666644444~---44444~---444444444444444444888888888888666666--->
E-6666555544443333222------222------222------222------666666555555444444--->
  ****************                       ****     ****** ** ** ** ** **
So take a wild guess itís/like I just couldnít care less if/all the things
you find impressive/just blew up and made those messes/that youíll
frantically repair/like itís a life or death affair/and all the while
youíre unaware/for this, you really shouldnít care/but itís so hard to see
the reality that the end will be

Bridge 2: guitar 2
e-------------------------------------------------------------------------->
B-------------------------------------------------------------------------->
G-------------------6666--------------------------------------------------->
D-55555544446666888866664444444466666666----------------------------------->
A-66666644446666888844444444444466666666----------------------------------->
E-333333222244446666----2222222244444444----------------------------------->
  ****  *****************************
the end of things/and our hearts are all weíll get to bring/so letís go
ahead and make them worth something

---REPEAT CHORUS
---REPEAT CHORUS

outro: guitar 1
/e-4444444444444444---44444444444444444444---4444->\
|B-4446664446666---66677774446664446666---6667777->|
|G-6666666666666666666666666666666666666666666666->|
|D------------------------------------------------>|
|A------------------------------------------------>|
|E------------------------------------------------>|
|                                                  |
|outro: guitar 2                                   |
|e------------------------------------------------>|
|B------------------------------------------------>|
|G----------6666-------------------6666----------->|
|D-33334444-6666-6666-444433334444-6666-6666-4444->|
|A-33334444-4444-6666-444433334444-4444-6666-4444->|
\E-11112222------4444-222211112222------4444-2222->/
Iím well aware that everything is a far cry from alright/Iím well aware
that all of us can at times be too uptight

outro: guitar 1
/e-4444444444444444---44444444~--------4-----4~--->\
|B-4446664446666---66677776664~--------6--6--7~--->|
|G-666666666666666666666666666~--------6--6--6~--->|
|D----------------------------------------6--4~--->|
|A------------------------------------------------>|
|E------------------------------------------------>|
|                                                  |
|outro: guitar 2                                   |
|e------------------------------------------------>|
|B------------------------------------------------>|
|G----------6666-----------------------6---------->|
|D-33334444-6666-6666444433334~--------6--6--4~--->|
|A-33334444-4444-6666444433334~--------4--6--4~--->|
\E-11112222------4444222211112~-----------4--2~--->/
and possibly the remedy is a dose of apathy/you point your finger at you,
Iíll point mine right back at me
Related for Apathetic Way To Be tab