Song name
# A B C D E F G H I J K L M N O P Q R S T U V W X Y Z

Relient K - Never Underestimate My Jesus tab

-----------------------------------------------------------------------------
                  Never Underestimate my Jesus - Relient K
-----------------------------------------------------------------------------
Tabbed by: udprosperity (Tom)
Email:elkirbydiablo@aol.com

Tuning:Standard

This is a great song, very powerful, and simple enough to figure out in a just a few
minutes...i think. Let me know if im wrong, enjoy!

Verses and Chorus...almost the entire song
      E	     A2     C#2	    B2
e|----0------0------0------0------------------------------------------|
B|----0------0------0------0------------------------------------------|
G|----1------2------6------4------------------------------------------|
D|----2------2------6------4------------------------------------------|
A|----2------0------4------2------------------------------------------|
E|----0------x------x------x------------------------------------------|

Just listen to the song for the rhythm, its too hard to write out
Then they change it up at the bridge...
      E	     A2     C#2    C2
e|----00-----00-----0------0------------------------------------------|
B|----00-----00-----0------0------------------------------------------|
G|----11-----22-----6------5------------------------------------------|
D|----22-----22-----6------5------------------------------------------|
A|----22-----00-----4------3------------------------------------------|
E|----00-----xx-----x------x------------------------------------------|
 
     C2     C#2    E      A2
e|----0------0------0------0------------------------------------------|
B|----0------0------0------0------------------------------------------|
G|----3------6------1------2------------------------------------------|
D|----3------6------2------2------------------------------------------|
A|----5------4------2------0------------------------------------------|
E|----x------x------0------x------------------------------------------|
Gather my....place...hand

And then back to the chorus!
-----------------------------------------------------------------------------
Tap to rate this tab
# A B C D E F G H I J K L M N O P Q R S T U V W X Y Z