Song name
# A B C D E F G H I J K L M N O P Q R S T U V W X Y Z

Relient K - Rest Is Up To You tab

Band: Relient K
Song: The Rest is Up to You
Written by: Matthew Theissen
Tabbed by: Sully

Intro
-----------|
-----------|
-----------|
7x-9x-9/14-|
7x-9x-9/14-|
5x-7x-7/12-|

Verse
----------------|
----------------|
----------------|
-22x-4/6----4/2-|
--------44x-----|
----------------|

Prechorus
-------------------------------------------|
-------------------------------------------|
----9---6---------------------77-88-1010-9-|
-10-9-9-6-6-7------------77-99-------------|
-10-7-9-4-6-7--77-99-1010------------------|
-8----7---4-5------------------------------|

Chorus
-----------------------------|
-----------------------------|
-9x-9x-7x-----9-9-7---7---9--|
-9x-9x-7x-7-9-9-9-7-7-7-9-9--|
-7x-6x-5x-7-9-7-6-5-7-5-9-7--|
----------5-7-------5---7----|

Bridge (for the first 022 and third, just strum once and let it ring)
-------------------------------|
-------------------------------|
---6-----9-7-4----6-2---9-7-2--|
-4-6-7-2-9-7-4--4-6-2-2-9-5-4--|
-4-4-7-2-7-5-2--4-4-0-2-7-5-4--|
-2---5-0--------2-----0--------|
Tap to rate this tab
# A B C D E F G H I J K L M N O P Q R S T U V W X Y Z