Guitaretab - guitar tabs
Song name
# A B C D E F G H I J K L M N O P Q R S T U V W X Y Z

Relient K - Hoopes I Did It Again tab

intro: guitar 1
/e-12~------------------------------5~---4~--------5~------------>\
|B--------------------------------------------7~----------------->|
|G--------------------------------------------------------------->|
|D--------------------------------------------------------------->|
|A--------------------------------------------------------------->|
|D--------------------------------------------------------------->|
|                                                                 |
|intro: guitar 2                                                  |
|e--------------------------------------------------------------->|
|B--------------------------------------------------------------->|
|G--------------------------------------------------------------->|
|D-7~-------------------------------7~--------------------------->|
|A-7~-------------------------------7~--------------------------->|
\D-7~-------------------------------7~--------------------------->/

intro-verse 1: guitar 1
e-5-4------5-4------5-4------5-4------5-4------5-4------5-4------5-4------->
B-------5--------5--------5--------5--------5--------5--------5--------5-5->
G-------------------------------------------------------------------------->
D-------------------------------------------------------------------------->
A-------------------------------------------------------------------------->
D-------------------------------------------------------------------------->
Whatís up dude I'm getting kind of bored Letís get some food and then hit
movies 4 Whatís going on? Whatís up with all out friends? Lets start
a rumor just to find out where it ends

verse 1: guitar 2
e-------------------------------------------------------------------------->
B-------------------------------------------------------------------------->
G-7-7777779999999---------------7-7777779999999--------------7777777999999->
D-7-77777799999997777777555555-57-7777779999999777777755555557777777999999->
A-5-55555577777777777777555555-55-5555557777777777777755555555555555777777->
D----------------7777777555555-5---------------77777775555555-------------->
    *************************     ******************************
Cause a small town is like a small stage For teenagers and their drama
Instead of playing shows we'll be showing plays like 90210 without the
Beverly Hills

pre-chorus: guitar 2
e-------------------------------------------------------------------------->
B-------------------------------------------------------------------------->
G-------------------------------------------------------------7~---999999-->
D-7--7--2--2--------------------7--7--2--2--------------------7~---999999-->
A-7--7--2--2--545424---545420---7--7--2--2--545424---545420---5~---777777-->
D-7--7--2--2--------44-------22-7--7--2--2--------44-------22-------------->
                                                                   ******
Well donít you think its high time That we never settle down Well donít you
think its high time That we get out of this town Cause if we leave then we
might just be okay

chorus: guitar 2
e------------------------------------------------------------------>
B------------------------------------------------------------------>
G----------------777777-999999--------------------777777-999999---->
D-777777-222-6---777777-999999-6---777777-222-6---777777-999999-6-->
A-777777-222-7---555555-777777-7---777777-222-7---555555-777777-7-->
D-777777-222-6-----------------6---777777-222-6-----------------6-->
Hoopes I did it again I messed everything up and I think I hurt my friends
Hoopes I did it again Relationships that work are things that I canít
comprehend

---REPEAT INTRO
[ Tab from: http://www.guitaretab.com/r/relient-k/70690.html ]
intro-verse 2: guitar 1
e-5-4------5-4------5-4------5-4------5-4------5-4------5-4------5-4------->
B-------5--------5--------5--------5--------5--------5--------5--------5-5->
G-------------------------------------------------------------------------->
D-------------------------------------------------------------------------->
A-------------------------------------------------------------------------->
D-------------------------------------------------------------------------->
Ohio has the flavor of a water chestnut Its not too crazy and its not the
best but We're not setting forest fires just out of boredom Iíd rather see
a movie if in fact I can afford one

---REPEAT VERSE 1

pre-chorus: guitar 2
e---------------------------------------------------14--12--12--15--14--16->
B----------------------------------------------------------------15-------->
G-------------------------------------------------------------------------->
D-7-7-2-2-------------------7-7-2-2---------------------------------------->
A-7-7-2-2-545424---545420---7-7-2-2-545424---545420------------------------>
D-7-7-2-2-------44-------22-7-7-2-2-------44-------22---------------------->
Well donít you think its high time That we never settle down Well donít you
think its high time That we get out of this town Cause if we leave then we
just might make a difference And if we leave then we just might be okay And
I donít think it would hurt to get away

---REPEAT CHORUS

fill: guitar 1
e-------------------------------------------------------------------->
B-------------------------------------------------------------------->
G-------------------------------------------------------------------->
D-------------------------------------------------------------------->
A-004-004040--4--4-4-2-2-0---0--0--0-0--4--4-4-4---2--2----5--5--5-5->
D-----------44-44-4-4-4-4-400-00-00-0-00-00-0-0-022-22-2255-55-55-5-->

bridge: guitar 1
e-------------------------------------------------------------------------->
B-------------------------------------------------------------------------->
G-------------------------------------------------------------------------->
D-------------------------------------------------------------------------->
A-------------------------------------------------------------------------->
D-7-7-7-7-7-7-7-7-4-4-4-4-4-4-4-4-0-0-0-0-0-0-0-0-2-2-2-2-6-6-6-6---------->
Dan Bakitus said Iím shallow He said Iíve got no integrity

bridge: guitar 2
e------------------------------------>
B-----------------------5-5-5-------->
G-----------------------4-4-4-------->
D-7~-----4~----00000000-2-2-2-5-5-5-->
A-7~-----4~----00000000-------5-5-5-->
D-7~-----4~----00000000-------5-5-5-->
               ********
But I donít know Dan Bakitus And Dan Bakitus, he donít know me

outro: guitar 2
e---------------------------------------------------->
B---------------------------------------------------->
G------------------------777777777777-999999--------->
D-7777777777-44444444444-777777777777-999999-555555-->
A-7777777777-44444444444-555555555555-777777-555555-->
D-7777777777-44444444444---------------------555555-->
Cause we always say in Canton You cant enjoy yourself Well thereís truth to
that And may I add Its not half bad And lever less than that

outro: guitar 2
e----------------------------------------------------------->
B----------------------------------------------------------->
G------------------------777777777777-999999---------------->
D-7777777777-44444444444-777777777777-999999-555555-7~------>
A-7777777777-44444444444-555555555555-777777-555555-7~------>
D-7777777777-44444444444---------------------555555-7~------>
Cause we always say in Canton You cant enjoy yourself Well thereís truth to
that And may I add Its not half bad And lever less than that
Related for Hoopes I Did It Again tab